  0
SECTION
  2
HEADER
  9
$ACADVER
  1
AC1015
  9
$ACADMAINTVER
 70
     6
  9
$DWGCODEPAGE
  3
ANSI_1252
  9
$INSBASE
 10
0.0
 20
0.0
 30
0.0
  9
$EXTMIN
 10
0.0
 20
0.0
 30
0.0
  9
$EXTMAX
 10
431.8
 20
279.4
 30
0.0
  9
$LIMMIN
 10
0.0
 20
0.0
  9
$LIMMAX
 10
431.8
 20
279.4
  9
$ORTHOMODE
 70
     0
  9
$REGENMODE
 70
     1
  9
$FILLMODE
 70
     1
  9
$QTEXTMODE
 70
     0
  9
$MIRRTEXT
 70
     1
  9
$LTSCALE
 40
1.0
  9
$ATTMODE
 70
     1
  9
$TEXTSIZE
 40
4.9388888889
  9
$TRACEWID
 40
1.0
  9
$TEXTSTYLE
  7
Standard
  9
$CLAYER
  8
0
  9
$CELTYPE
  6
ByLayer
  9
$CECOLOR
 62
   256
  9
$CELTSCALE
 40
1.0
  9
$DISPSILH
 70
     0
  9
$DIMSCALE
 40
1.0
  9
$DIMASZ
 40
5.1366373698
  9
$DIMEXO
 40
2.0
  9
$DIMDLI
 40
3.75
  9
$DIMRND
 40
0.0
  9
$DIMDLE
 40
0.0
  9
$DIMEXE
 40
2.0
  9
$DIMTP
 40
0.0
  9
$DIMTM
 40
0.0
  9
$DIMTXT
 40
7.0555555556
  9
$DIMCEN
 40
2.5
  9
$DIMTSZ
 40
0.0
  9
$DIMTOL
 70
     0
  9
$DIMLIM
 70
     0
  9
$DIMTIH
 70
     1
  9
$DIMTOH
 70
     1
  9
$DIMSE1
 70
     0
  9
$DIMSE2
 70
     0
  9
$DIMTAD
 70
     1
  9
$DIMZIN
 70
     0
  9
$DIMBLK
  1

  9
$DIMASO
 70
     1
  9
$DIMSHO
 70
     1
  9
$DIMPOST
  1

  9
$DIMAPOST
  1

  9
$DIMALT
 70
     0
  9
$DIMALTD
 70
     3
  9
$DIMALTF
 40
0.0393700787
  9
$DIMLFAC
 40
1.0
  9
$DIMTOFL
 70
     1
  9
$DIMTVP
 40
0.0
  9
$DIMTIX
 70
     0
  9
$DIMSOXD
 70
     0
  9
$DIMSAH
 70
     0
  9
$DIMBLK1
  1

  9
$DIMBLK2
  1

  9
$DIMSTYLE
  2
ISO-25
  9
$DIMCLRD
 70
     0
  9
$DIMCLRE
 70
     0
  9
$DIMCLRT
 70
     0
  9
$DIMTFAC
 40
1.0
  9
$DIMGAP
 40
2.0
  9
$DIMJUST
 70
     0
  9
$DIMSD1
 70
     0
  9
$DIMSD2
 70
     0
  9
$DIMTOLJ
 70
     0
  9
$DIMTZIN
 70
     0
  9
$DIMALTZ
 70
     0
  9
$DIMALTTZ
 70
     0
  9
$DIMUPT
 70
     0
  9
$DIMDEC
 70
     2
  9
$DIMTDEC
 70
     2
  9
$DIMALTU
 70
     2
  9
$DIMALTTD
 70
     3
  9
$DIMTXSTY
  7
Standard
  9
$DIMAUNIT
 70
     0
  9
$DIMADEC
 70
     2
  9
$DIMALTRND
 40
0.0
  9
$DIMAZIN
 70
     0
  9
$DIMDSEP
 70
    44
  9
$DIMATFIT
 70
     3
  9
$DIMFRAC
 70
     0
  9
$DIMLDRBLK
  1

  9
$DIMLUNIT
 70
     2
  9
$DIMLWD
 70
    -2
  9
$DIMLWE
 70
    -2
  9
$DIMTMOVE
 70
     0
  9
$LUNITS
 70
     2
  9
$LUPREC
 70
     2
  9
$SKETCHINC
 40
1.0
  9
$FILLETRAD
 40
10.0
  9
$AUNITS
 70
     0
  9
$AUPREC
 70
     2
  9
$MENU
  1
.
  9
$ELEVATION
 40
0.0
  9
$PELEVATION
 40
0.0
  9
$THICKNESS
 40
0.0
  9
$LIMCHECK
 70
     0
  9
$CHAMFERA
 40
0.0
  9
$CHAMFERB
 40
0.0
  9
$CHAMFERC
 40
0.0
  9
$CHAMFERD
 40
0.0
  9
$SKPOLY
 70
     0
  9
$TDCREATE
 40
2457683.60917618
  9
$TDUCREATE
 40
2457683.525842847
  9
$TDUPDATE
 40
2457683.609176852
  9
$TDUUPDATE
 40
2457683.525843518
  9
$TDINDWG
 40
0.0000000116
  9
$TDUSRTIMER
 40
0.0000000116
  9
$USRTIMER
 70
     1
  9
$ANGBASE
 50
0.0
  9
$ANGDIR
 70
     0
  9
$PDMODE
 70
     0
  9
$PDSIZE
 40
-1.0
  9
$PLINEWID
 40
0.0
  9
$SPLFRAME
 70
     0
  9
$SPLINETYPE
 70
     6
  9
$SPLINESEGS
 70
     8
  9
$HANDSEED
  5
4AE
  9
$SURFTAB1
 70
     6
  9
$SURFTAB2
 70
     6
  9
$SURFTYPE
 70
     6
  9
$SURFU
 70
     6
  9
$SURFV
 70
     6
  9
$UCSBASE
  2

  9
$UCSNAME
  2

  9
$UCSORG
 10
0.0
 20
0.0
 30
0.0
  9
$UCSXDIR
 10
1.0
 20
0.0
 30
0.0
  9
$UCSYDIR
 10
0.0
 20
1.0
 30
0.0
  9
$UCSORTHOREF
  2

  9
$UCSORTHOVIEW
 70
     0
  9
$UCSORGTOP
 10
0.0
 20
0.0
 30
0.0
  9
$UCSORGBOTTOM
 10
0.0
 20
0.0
 30
0.0
  9
$UCSORGLEFT
 10
0.0
 20
0.0
 30
0.0
  9
$UCSORGRIGHT
 10
0.0
 20
0.0
 30
0.0
  9
$UCSORGFRONT
 10
0.0
 20
0.0
 30
0.0
  9
$UCSORGBACK
 10
0.0
 20
0.0
 30
0.0
  9
$PUCSBASE
  2

  9
$PUCSNAME
  2

  9
$PUCSORG
 10
0.0
 20
0.0
 30
0.0
  9
$PUCSXDIR
 10
1.0
 20
0.0
 30
0.0
  9
$PUCSYDIR
 10
0.0
 20
1.0
 30
0.0
  9
$PUCSORTHOREF
  2

  9
$PUCSORTHOVIEW
 70
     0
  9
$PUCSORGTOP
 10
0.0
 20
0.0
 30
0.0
  9
$PUCSORGBOTTOM
 10
0.0
 20
0.0
 30
0.0
  9
$PUCSORGLEFT
 10
0.0
 20
0.0
 30
0.0
  9
$PUCSORGRIGHT
 10
0.0
 20
0.0
 30
0.0
  9
$PUCSORGFRONT
 10
0.0
 20
0.0
 30
0.0
  9
$PUCSORGBACK
 10
0.0
 20
0.0
 30
0.0
  9
$USERI1
 70
     0
  9
$USERI2
 70
     0
  9
$USERI3
 70
     0
  9
$USERI4
 70
     0
  9
$USERI5
 70
     0
  9
$USERR1
 40
0.0
  9
$USERR2
 40
0.0
  9
$USERR3
 40
0.0
  9
$USERR4
 40
0.0
  9
$USERR5
 40
0.0
  9
$WORLDVIEW
 70
     1
  9
$SHADEDGE
 70
     3
  9
$SHADEDIF
 70
    70
  9
$TILEMODE
 70
     1
  9
$MAXACTVP
 70
    64
  9
$PINSBASE
 10
0.0
 20
0.0
 30
0.0
  9
$PLIMCHECK
 70
     0
  9
$PEXTMIN
 10
1.0000000000E+20
 20
1.0000000000E+20
 30
1.0000000000E+20
  9
$PEXTMAX
 10
-1.0000000000E+20
 20
-1.0000000000E+20
 30
-1.0000000000E+20
  9
$PLIMMIN
 10
0.0
 20
0.0
  9
$PLIMMAX
 10
420.0
 20
297.0
  9
$UNITMODE
 70
     0
  9
$VISRETAIN
 70
     1
  9
$PLINEGEN
 70
     0
  9
$PSLTSCALE
 70
     1
  9
$TREEDEPTH
 70
  3020
  9
$CMLSTYLE
  2
Standard
  9
$CMLJUST
 70
     0
  9
$CMLSCALE
 40
20.0
  9
$PROXYGRAPHICS
 70
     1
  9
$MEASUREMENT
 70
     1
  9
$CELWEIGHT
370
    -1
  9
$ENDCAPS
280
     0
  9
$JOINSTYLE
280
     0
  9
$LWDISPLAY
290
     1
  9
$INSUNITS
 70
     4
  9
$HYPERLINKBASE
  1

  9
$STYLESHEET
  1

  9
$XEDIT
290
     1
  9
$CEPSNTYPE
380
     0
  9
$PSTYLEMODE
290
     1
  9
$FINGERPRINTGUID
  2
{9C9D6FCB-01A8-478C-B24B-9BFBDB002298}
  9
$VERSIONGUID
  2
{FAEB1C32-E019-11D5-929B-00C0DF256EC4}
  9
$EXTNAMES
290
     1
  9
$PSVPSCALE
 40
0.0
  9
$OLESTARTUP
290
     0
  0
ENDSEC
  0
SECTION
  2
CLASSES
  0
CLASS
  1
ACDBDICTIONARYWDFLT
  2
AcDbDictionaryWithDefault
  3
ObjectDBX Classes
 90
        0
280
     0
281
     0
  0
CLASS
  1
VISUALSTYLE
  2
AcDbVisualStyle
  3
ObjectDBX Classes
 90
     4095
280
     0
281
     0
  0
CLASS
  1
MATERIAL
  2
AcDbMaterial
  3
ObjectDBX Classes
 90
     1153
280
     0
281
     0
  0
CLASS
  1
SCALE
  2
AcDbScale
  3
ObjectDBX Classes
 90
     1153
280
     0
281
     0
  0
CLASS
  1
TABLESTYLE
  2
AcDbTableStyle
  3
ObjectDBX Classes
 90
     4095
280
     0
281
     0
  0
CLASS
  1
MLEADERSTYLE
  2
AcDbMLeaderStyle
  3
ACDB_MLEADERSTYLE_CLASS
 90
     4095
280
     0
281
     0
  0
CLASS
  1
SUN
  2
AcDbSun
  3
SCENEOE
 90
     1153
280
     0
281
     0
  0
CLASS
  1
ACDBPLACEHOLDER
  2
AcDbPlaceHolder
  3
ObjectDBX Classes
 90
        0
280
     0
281
     0
  0
CLASS
  1
LAYOUT
  2
AcDbLayout
  3
ObjectDBX Classes
 90
        0
280
     0
281
     0
  0
ENDSEC
  0
SECTION
  2
TABLES
  0
TABLE
  2
VPORT
  5
8
330
0
100
AcDbSymbolTable
 70
     1
  0
VPORT
  5
29
330
8
100
AcDbSymbolTableRecord
100
AcDbViewportTableRecord
  2
*Active
 70
     0
 10
0.0
 20
0.0
 11
1.0
 21
1.0
 12
215.9
 22
139.7
 13
0.0
 23
0.0
 14
10.0
 24
10.0
 15
10.0
 25
10.0
 16
0.0
 26
0.0
 36
1.0
 17
0.0
 27
0.0
 37
0.0
 40
279.4
 41
1.5454545455
 42
50.0
 43
0.0
 44
0.0
 50
0.0
 51
0.0
 71
     0
 72
  2000
 73
     1
 74
     3
 75
     0
 76
     0
 77
     0
 78
     0
281
     0
 65
     1
110
0.0
120
0.0
130
0.0
111
1.0
121
0.0
131
0.0
112
0.0
122
1.0
132
0.0
 79
     0
146
0.0
  0
ENDTAB
  0
TABLE
  2
LTYPE
  5
5
330
0
100
AcDbSymbolTable
 70
     6
  0
LTYPE
  5
14
330
5
100
AcDbSymbolTableRecord
100
AcDbLinetypeTableRecord
  2
ByBlock
 70
     0
  3

 72
    65
 73
     0
 40
0.0
  0
LTYPE
  5
15
330
5
100
AcDbSymbolTableRecord
100
AcDbLinetypeTableRecord
  2
ByLayer
 70
     0
  3

 72
    65
 73
     0
 40
0.0
  0
LTYPE
  5
16
330
5
100
AcDbSymbolTableRecord
100
AcDbLinetypeTableRecord
  2
Continuous
 70
     0
  3
Solid line
 72
    65
 73
     0
 40
0.0
  0
LTYPE
  5
6E
330
5
100
AcDbSymbolTableRecord
100
AcDbLinetypeTableRecord
  2
HIDDEN
 70
     0
  3
Hidden __ __ __ __ __ __ __ __ __ __ __ __ __ __
 72
    65
 73
     2
 40
1.905
 49
1.27
 74
     0
 49
-0.635
 74
     0
  0
LTYPE
  5
6F
330
5
100
AcDbSymbolTableRecord
100
AcDbLinetypeTableRecord
  2
PHANTOM
 70
     0
  3
Phantom ______  __  __  ______  __  __  ______
 72
    65
 73
     6
 40
12.7
 49
6.35
 74
     0
 49
-1.27
 74
     0
 49
1.27
 74
     0
 49
-1.27
 74
     0
 49
1.27
 74
     0
 49
-1.27
 74
     0
  0
LTYPE
  5
70
330
5
100
AcDbSymbolTableRecord
100
AcDbLinetypeTableRecord
  2
CENTER
 70
     0
  3
Center ____ _ ____ _ ____ _ ____ _ ____ _ ____
 72
    65
 73
     4
 40
10.16
 49
6.35
 74
     0
 49
-1.27
 74
     0
 49
1.27
 74
     0
 49
-1.27
 74
     0
  0
LTYPE
  5
71
330
5
100
AcDbSymbolTableRecord
100
AcDbLinetypeTableRecord
  2
CENTERX2
 70
     0
  3
Center (2x) ________  __  ________  __  _____
 72
    65
 73
     4
 40
20.32
 49
12.7
 74
     0
 49
-2.54
 74
     0
 49
2.54
 74
     0
 49
-2.54
 74
     0
  0
LTYPE
  5
72
330
5
100
AcDbSymbolTableRecord
100
AcDbLinetypeTableRecord
  2
DOT2
 70
     0
  3
Dot (.5x) ........................................
 72
    65
 73
     2
 40
0.635
 49
0.0
 74
     0
 49
-0.635
 74
     0
  0
ENDTAB
  0
TABLE
  2
LAYER
  5
2
330
0
100
AcDbSymbolTable
 70
     3
  0
LAYER
  5
10
330
2
100
AcDbSymbolTableRecord
100
AcDbLayerTableRecord
  2
0
 70
     0
 62
     7
  6
Continuous
370
    -3
390
F
  0
LAYER
  5
73
330
2
100
AcDbSymbolTableRecord
100
AcDbLayerTableRecord
  2
SLD-0
 70
     0
 62
   179
  6
Continuous
370
    -3
390
F
  0
LAYER
  5
74
330
2
100
AcDbSymbolTableRecord
100
AcDbLayerTableRecord
  2
EBENE_1
 70
     0
 62
   179
  6
Continuous
370
    -3
390
F
  0
ENDTAB
  0
TABLE
  2
STYLE
  5
3
330
0
100
AcDbSymbolTable
 70
     3
  0
STYLE
  5
11
330
3
100
AcDbSymbolTableRecord
100
AcDbTextStyleTableRecord
  2
Standard
 70
     0
 40
0.0
 41
1.0
 50
0.0
 71
     0
 42
4.9388888889
  3
txt
  4

  0
STYLE
  5
96
330
3
100
AcDbSymbolTableRecord
100
AcDbTextStyleTableRecord
  2
SLDTEXTSTYLE0
 70
     0
 40
0.0
 41
0.605
 50
0.0
 71
     0
 42
4.9388888889
  3
TXT
  4

  0
STYLE
  5
16E
330
3
100
AcDbSymbolTableRecord
100
AcDbTextStyleTableRecord
  2
SLDTEXTSTYLE1
 70
     0
 40
0.0
 41
0.75
 50
0.0
 71
     0
 42
4.9388888889
  3
TXT
  4

  0
ENDTAB
  0
TABLE
  2
VIEW
  5
6
330
0
100
AcDbSymbolTable
 70
     0
  0
ENDTAB
  0
TABLE
  2
UCS
  5
7
330
0
100
AcDbSymbolTable
 70
     0
  0
ENDTAB
  0
TABLE
  2
APPID
  5
9
330
0
100
AcDbSymbolTable
 70
     1
  0
APPID
  5
12
330
9
100
AcDbSymbolTableRecord
100
AcDbRegAppTableRecord
  2
ACAD
 70
     0
  0
ENDTAB
  0
TABLE
  2
DIMSTYLE
  5
A
330
0
100
AcDbSymbolTable
 70
     1
100
AcDbDimStyleTable
  0
DIMSTYLE
105
27
330
A
100
AcDbSymbolTableRecord
100
AcDbDimStyleTableRecord
  2
ISO-25
 70
     0
 41
2.5
 42
0.625
 43
3.75
 44
1.25
 73
     0
 74
     0
 77
     1
 78
     8
140
2.5
141
2.5
143
0.0393700787
147
0.625
171
     3
172
     1
178
     0
271
     2
272
     2
274
     3
278
    44
283
     0
284
     8
340
11
  0
ENDTAB
  0
TABLE
  2
BLOCK_RECORD
  5
1
330
0
100
AcDbSymbolTable
 70
    25
  0
BLOCK_RECORD
  5
1F
330
1
100
AcDbSymbolTableRecord
100
AcDbBlockTableRecord
  2
*Model_Space
340
22
  0
BLOCK_RECORD
  5
1B
330
1
100
AcDbSymbolTableRecord
100
AcDbBlockTableRecord
  2
*Paper_Space
340
1E
  0
BLOCK_RECORD
  5
23
330
1
100
AcDbSymbolTableRecord
100
AcDbBlockTableRecord
  2
*Paper_Space0
340
26
  0
BLOCK_RECORD
  5
75
330
1
100
AcDbSymbolTableRecord
100
AcDbBlockTableRecord
  2
Block1
340
0
102
{BLKREFS
331
16D
102
}
  0
BLOCK_RECORD
  5
8C
330
1
100
AcDbSymbolTableRecord
100
AcDbBlockTableRecord
  2
SW_BLOCK_DIMENSION_0
340
0
102
{BLKREFS
331
98
102
}
  0
BLOCK_RECORD
  5
8F
330
1
100
AcDbSymbolTableRecord
100
AcDbBlockTableRecord
  2
_ORIGIN
340
0
102
{BLKREFS
331
94
331
104
102
}
  0
BLOCK_RECORD
  5
99
330
1
100
AcDbSymbolTableRecord
100
AcDbBlockTableRecord
  2
SW_BLOCK_DIMENSION_1
340
0
102
{BLKREFS
331
A0
102
}
  0
BLOCK_RECORD
  5
A1
330
1
100
AcDbSymbolTableRecord
100
AcDbBlockTableRecord
  2
SW_BLOCK_DIMENSION_2
340
0
102
{BLKREFS
331
A8
102
}
  0
BLOCK_RECORD
  5
A9
330
1
100
AcDbSymbolTableRecord
100
AcDbBlockTableRecord
  2
SW_BLOCK_DIMENSION_3
340
0
102
{BLKREFS
331
B0
102
}
  0
BLOCK_RECORD
  5
B1
330
1
100
AcDbSymbolTableRecord
100
AcDbBlockTableRecord
  2
SW_BLOCK_DIMENSION_4
340
0
102
{BLKREFS
331
B8
102
}
  0
BLOCK_RECORD
  5
B9
330
1
100
AcDbSymbolTableRecord
100
AcDbBlockTableRecord
  2
SW_BLOCK_DIMENSION_5
340
0
102
{BLKREFS
331
C0
102
}
  0
BLOCK_RECORD
  5
C1
330
1
100
AcDbSymbolTableRecord
100
AcDbBlockTableRecord
  2
SW_BLOCK_DIMENSION_6
340
0
102
{BLKREFS
331
C8
102
}
  0
BLOCK_RECORD
  5
C9
330
1
100
AcDbSymbolTableRecord
100
AcDbBlockTableRecord
  2
SW_BLOCK_DIMENSION_7
340
0
102
{BLKREFS
331
D0
102
}
  0
BLOCK_RECORD
  5
D1
330
1
100
AcDbSymbolTableRecord
100
AcDbBlockTableRecord
  2
SW_BLOCK_DIMENSION_8
340
0
102
{BLKREFS
331
D8
102
}
  0
BLOCK_RECORD
  5
D9
330
1
100
AcDbSymbolTableRecord
100
AcDbBlockTableRecord
  2
SW_BLOCK_DIMENSION_9
340
0
102
{BLKREFS
331
E0
102
}
  0
BLOCK_RECORD
  5
E1
330
1
100
AcDbSymbolTableRecord
100
AcDbBlockTableRecord
  2
SW_BLOCK_DIMENSION_10
340
0
102
{BLKREFS
331
E8
102
}
  0
BLOCK_RECORD
  5
E9
330
1
100
AcDbSymbolTableRecord
100
AcDbBlockTableRecord
  2
SW_BLOCK_DIMENSION_11
340
0
102
{BLKREFS
331
F0
102
}
  0
BLOCK_RECORD
  5
F1
330
1
100
AcDbSymbolTableRecord
100
AcDbBlockTableRecord
  2
SW_BLOCK_DIMENSION_12
340
0
102
{BLKREFS
331
F8
102
}
  0
BLOCK_RECORD
  5
F9
330
1
100
AcDbSymbolTableRecord
100
AcDbBlockTableRecord
  2
SW_BLOCK_DIMENSION_13
340
0
102
{BLKREFS
331
100
102
}
  0
BLOCK_RECORD
  5
101
330
1
100
AcDbSymbolTableRecord
100
AcDbBlockTableRecord
  2
SW_BLOCK_DIMENSION_14
340
0
102
{BLKREFS
331
110
102
}
  0
BLOCK_RECORD
  5
111
330
1
100
AcDbSymbolTableRecord
100
AcDbBlockTableRecord
  2
SW_BLOCK_DIMENSION_15
340
0
102
{BLKREFS
331
121
102
}
  0
BLOCK_RECORD
  5
122
330
1
100
AcDbSymbolTableRecord
100
AcDbBlockTableRecord
  2
SW_BLOCK_DIMENSION_16
340
0
102
{BLKREFS
331
132
102
}
  0
BLOCK_RECORD
  5
133
330
1
100
AcDbSymbolTableRecord
100
AcDbBlockTableRecord
  2
SW_BLOCK_DIMENSION_17
340
0
102
{BLKREFS
331
143
102
}
  0
BLOCK_RECORD
  5
144
330
1
100
AcDbSymbolTableRecord
100
AcDbBlockTableRecord
  2
SW_BLOCK_DIMENSION_18
340
0
102
{BLKREFS
331
154
102
}
  0
BLOCK_RECORD
  5
155
330
1
100
AcDbSymbolTableRecord
100
AcDbBlockTableRecord
  2
SW_BLOCK_DIMENSION_19
340
0
102
{BLKREFS
331
165
102
}
  0
BLOCK_RECORD
  5
166
330
1
100
AcDbSymbolTableRecord
100
AcDbBlockTableRecord
  2
SW_NOTE_0
340
0
102
{BLKREFS
331
16B
102
}
  0
BLOCK_RECORD
  5
171
330
1
100
AcDbSymbolTableRecord
100
AcDbBlockTableRecord
  2
SW_NOTE_1
340
0
102
{BLKREFS
331
178
102
}
  0
ENDTAB
  0
ENDSEC
  0
SECTION
  2
BLOCKS
  0
BLOCK
  5
20
330
1F
100
AcDbEntity
  8
0
100
AcDbBlockBegin
  2
*Model_Space
 70
     0
 10
0.0
 20
0.0
 30
0.0
  3
*Model_Space
  1

  0
ENDBLK
  5
21
330
1F
100
AcDbEntity
  8
0
100
AcDbBlockEnd
  0
BLOCK
  5
1C
330
1B
100
AcDbEntity
 67
     1
  8
0
100
AcDbBlockBegin
  2
*Paper_Space
 70
     0
 10
0.0
 20
0.0
 30
0.0
  3
*Paper_Space
  1

  0
ENDBLK
  5
1D
330
1B
100
AcDbEntity
 67
     1
  8
0
100
AcDbBlockEnd
  0
BLOCK
  5
24
330
23
100
AcDbEntity
  8
0
100
AcDbBlockBegin
  2
*Paper_Space0
 70
     0
 10
0.0
 20
0.0
 30
0.0
  3
*Paper_Space0
  1

  0
ENDBLK
  5
25
330
23
100
AcDbEntity
  8
0
100
AcDbBlockEnd
  0
BLOCK
  5
76
330
75
100
AcDbEntity
  8
0
100
AcDbBlockBegin
  2
Block1
 70
     0
 10
0.0
 20
0.0
 30
0.0
  3
Block1
  1

  0
LINE
  5
78
330
75
100
AcDbEntity
  8
EBENE_1
100
AcDbLine
 10
363.6834285714
 20
41.3579706949
 30
0.0
 11
388.6834285714
 21
41.3579706949
 31
0.0
  0
LINE
  5
79
330
75
100
AcDbEntity
  8
EBENE_1
100
AcDbLine
 10
374.9034285714
 20
41.3579706949
 30
0.0
 11
374.9034285714
 21
171.3579706949
 31
0.0
  0
LINE
  5
7A
330
75
100
AcDbEntity
  8
EBENE_1
100
AcDbLine
 10
374.9034285714
 20
51.3579706949
 30
0.0
 11
384.9034285714
 21
51.3579706949
 31
0.0
  0
LINE
  5
7B
330
75
100
AcDbEntity
  8
EBENE_1
100
AcDbLine
 10
374.9034285714
 20
61.3579706949
 30
0.0
 11
384.9034285714
 21
61.3579706949
 31
0.0
  0
LINE
  5
7C
330
75
100
AcDbEntity
  8
EBENE_1
100
AcDbLine
 10
374.9034285714
 20
71.3579706949
 30
0.0
 11
384.9034285714
 21
71.3579706949
 31
0.0
  0
LINE
  5
7D
330
75
100
AcDbEntity
  8
EBENE_1
100
AcDbLine
 10
374.9034285714
 20
81.3579706949
 30
0.0
 11
384.9034285714
 21
81.3579706949
 31
0.0
  0
LINE
  5
7E
330
75
100
AcDbEntity
  8
EBENE_1
100
AcDbLine
 10
374.9034285714
 20
91.3579706949
 30
0.0
 11
384.9034285714
 21
91.3579706949
 31
0.0
  0
LINE
  5
7F
330
75
100
AcDbEntity
  8
EBENE_1
100
AcDbLine
 10
374.9034285714
 20
101.3579706949
 30
0.0
 11
384.9034285714
 21
101.3579706949
 31
0.0
  0
LINE
  5
80
330
75
100
AcDbEntity
  8
EBENE_1
100
AcDbLine
 10
374.9034285714
 20
111.3579706949
 30
0.0
 11
384.9034285714
 21
111.3579706949
 31
0.0
  0
LINE
  5
81
330
75
100
AcDbEntity
  8
EBENE_1
100
AcDbLine
 10
374.9034285714
 20
121.3579706949
 30
0.0
 11
384.9034285714
 21
121.3579706949
 31
0.0
  0
LINE
  5
82
330
75
100
AcDbEntity
  8
EBENE_1
100
AcDbLine
 10
374.9034285714
 20
131.3579706949
 30
0.0
 11
384.9034285714
 21
131.3579706949
 31
0.0
  0
LINE
  5
83
330
75
100
AcDbEntity
  8
EBENE_1
100
AcDbLine
 10
374.9034285714
 20
141.3579706949
 30
0.0
 11
384.9034285714
 21
141.3579706949
 31
0.0
  0
LINE
  5
84
330
75
100
AcDbEntity
  8
EBENE_1
100
AcDbLine
 10
374.9034285714
 20
151.3579706949
 30
0.0
 11
384.9034285714
 21
151.3579706949
 31
0.0
  0
LINE
  5
85
330
75
100
AcDbEntity
  8
EBENE_1
100
AcDbLine
 10
374.9034285714
 20
161.3579706949
 30
0.0
 11
384.9034285714
 21
161.3579706949
 31
0.0
  0
LINE
  5
86
330
75
100
AcDbEntity
  8
EBENE_1
100
AcDbLine
 10
374.9034285714
 20
171.3579706949
 30
0.0
 11
384.9034285714
 21
171.3579706949
 31
0.0
  0
LINE
  5
87
330
75
100
AcDbEntity
  8
EBENE_1
100
AcDbLine
 10
374.9034285714
 20
66.7579706949
 30
0.0
 11
362.9034285714
 21
66.7579706949
 31
0.0
  0
LINE
  5
88
330
75
100
AcDbEntity
  8
EBENE_1
100
AcDbLine
 10
374.9034285714
 20
92.1579706949
 30
0.0
 11
362.9034285714
 21
92.1579706949
 31
0.0
  0
LINE
  5
89
330
75
100
AcDbEntity
  8
EBENE_1
100
AcDbLine
 10
374.9034285714
 20
117.5579706949
 30
0.0
 11
362.9034285714
 21
117.5579706949
 31
0.0
  0
LINE
  5
8A
330
75
100
AcDbEntity
  8
EBENE_1
100
AcDbLine
 10
374.9034285714
 20
142.9579706949
 30
0.0
 11
362.9034285714
 21
142.9579706949
 31
0.0
  0
LINE
  5
8B
330
75
100
AcDbEntity
  8
EBENE_1
100
AcDbLine
 10
374.9034285714
 20
168.3579706949
 30
0.0
 11
362.9034285714
 21
168.3579706949
 31
0.0
  0
INSERT
  5
98
330
75
100
AcDbEntity
  8
EBENE_1
100
AcDbBlockReference
  2
SW_BLOCK_DIMENSION_0
 10
397.2096946378
 20
38.9914197296
 30
0.0
  0
INSERT
  5
A0
330
75
100
AcDbEntity
  8
EBENE_1
100
AcDbBlockReference
  2
SW_BLOCK_DIMENSION_1
 10
397.2096946378
 20
48.9914197296
 30
0.0
  0
INSERT
  5
A8
330
75
100
AcDbEntity
  8
EBENE_1
100
AcDbBlockReference
  2
SW_BLOCK_DIMENSION_2
 10
397.2096946378
 20
58.9914197296
 30
0.0
  0
INSERT
  5
B0
330
75
100
AcDbEntity
  8
EBENE_1
100
AcDbBlockReference
  2
SW_BLOCK_DIMENSION_3
 10
397.2096946378
 20
68.9914197296
 30
0.0
  0
INSERT
  5
B8
330
75
100
AcDbEntity
  8
EBENE_1
100
AcDbBlockReference
  2
SW_BLOCK_DIMENSION_4
 10
397.2096946378
 20
78.9914197296
 30
0.0
  0
INSERT
  5
C0
330
75
100
AcDbEntity
  8
EBENE_1
100
AcDbBlockReference
  2
SW_BLOCK_DIMENSION_5
 10
397.2096946378
 20
88.9914197296
 30
0.0
  0
INSERT
  5
C8
330
75
100
AcDbEntity
  8
EBENE_1
100
AcDbBlockReference
  2
SW_BLOCK_DIMENSION_6
 10
397.2096946378
 20
98.9914197296
 30
0.0
  0
INSERT
  5
D0
330
75
100
AcDbEntity
  8
EBENE_1
100
AcDbBlockReference
  2
SW_BLOCK_DIMENSION_7
 10
397.2096946378
 20
108.9914197296
 30
0.0
  0
INSERT
  5
D8
330
75
100
AcDbEntity
  8
EBENE_1
100
AcDbBlockReference
  2
SW_BLOCK_DIMENSION_8
 10
397.2096946378
 20
118.9914197296
 30
0.0
  0
INSERT
  5
E0
330
75
100
AcDbEntity
  8
EBENE_1
100
AcDbBlockReference
  2
SW_BLOCK_DIMENSION_9
 10
397.2096946378
 20
128.9914197296
 30
0.0
  0
INSERT
  5
E8
330
75
100
AcDbEntity
  8
EBENE_1
100
AcDbBlockReference
  2
SW_BLOCK_DIMENSION_10
 10
397.2096946378
 20
138.9914197296
 30
0.0
  0
INSERT
  5
F0
330
75
100
AcDbEntity
  8
EBENE_1
100
AcDbBlockReference
  2
SW_BLOCK_DIMENSION_11
 10
397.2096946378
 20
148.9914197296
 30
0.0
  0
INSERT
  5
F8
330
75
100
AcDbEntity
  8
EBENE_1
100
AcDbBlockReference
  2
SW_BLOCK_DIMENSION_12
 10
397.2096946378
 20
158.9914197296
 30
0.0
  0
INSERT
  5
100
330
75
100
AcDbEntity
  8
EBENE_1
100
AcDbBlockReference
  2
SW_BLOCK_DIMENSION_13
 10
397.2096946378
 20
168.9914197296
 30
0.0
  0
INSERT
  5
110
330
75
100
AcDbEntity
  8
EBENE_1
100
AcDbBlockReference
  2
SW_BLOCK_DIMENSION_14
 10
337.2987953614
 20
36.1691980072
 30
0.0
  0
INSERT
  5
121
330
75
100
AcDbEntity
  8
EBENE_1
100
AcDbBlockReference
  2
SW_BLOCK_DIMENSION_15
 10
337.2987953614
 20
61.5691980072
 30
0.0
  0
INSERT
  5
132
330
75
100
AcDbEntity
  8
EBENE_1
100
AcDbBlockReference
  2
SW_BLOCK_DIMENSION_16
 10
337.2987953614
 20
86.9691980072
 30
0.0
  0
INSERT
  5
143
330
75
100
AcDbEntity
  8
EBENE_1
100
AcDbBlockReference
  2
SW_BLOCK_DIMENSION_17
 10
337.2987953614
 20
112.3691980072
 30
0.0
  0
INSERT
  5
154
330
75
100
AcDbEntity
  8
EBENE_1
100
AcDbBlockReference
  2
SW_BLOCK_DIMENSION_18
 10
336.8284243759
 20
137.7691980072
 30
0.0
  0
INSERT
  5
165
330
75
100
AcDbEntity
  8
EBENE_1
100
AcDbBlockReference
  2
SW_BLOCK_DIMENSION_19
 10
337.2987953614
 20
163.1691980072
 30
0.0
  0
INSERT
  5
16B
330
75
100
AcDbEntity
  8
EBENE_1
 62
   179
100
AcDbBlockReference
  2
SW_NOTE_0
 10
337.5586028241
 20
28.8175207347
 30
0.0
  0
MTEXT
  5
16C
330
75
100
AcDbEntity
  8
EBENE_1
100
AcDbMText
 10
393.160738319
 20
33.5924424874
 30
0.0
 40
3.7041666667
 41
0.0
 71
     1
 72
     1
  1
mm
  7
SLDTEXTSTYLE0
 73
     1
 44
1.0
  0
ENDBLK
  5
77
330
75
100
AcDbEntity
  8
0
100
AcDbBlockEnd
  0
BLOCK
  5
8D
330
8C
100
AcDbEntity
  8
0
100
AcDbBlockBegin
  2
SW_BLOCK_DIMENSION_0
 70
     0
 10
0.0
 20
0.0
 30
0.0
  3
SW_BLOCK_DIMENSION_0
  1

  0
INSERT
  5
94
330
8C
100
AcDbEntity
  8
EBENE_1
 62
     0
100
AcDbBlockReference
  2
_ORIGIN
 10
-1.5805038061
 20
2.3665509652
 30
0.0
 41
0.9483022837
 42
0.9483022837
 50
0.0
  0
LINE
  5
95
330
8C
100
AcDbEntity
  8
EBENE_1
 62
     0
100
AcDbLine
 10
-6.5262660664
 20
2.3665509652
 30
0.0
 11
0.0
 21
2.3665509652
 31
0.0
  0
MTEXT
  5
97
330
8C
100
AcDbEntity
  8
EBENE_1
 62
     0
100
AcDbMText
 10
0.0
 20
4.0927900738
 30
0.0
 40
3.175
 41
0.0
 71
     1
 72
     1
  1
0
  7
SLDTEXTSTYLE0
 73
     1
 44
1.0
  0
ENDBLK
  5
8E
330
8C
100
AcDbEntity
  8
0
100
AcDbBlockEnd
  0
BLOCK
  5
90
330
8F
100
AcDbEntity
  8
0
100
AcDbBlockBegin
  2
_ORIGIN
 70
     0
 10
0.0
 20
0.0
 30
0.0
  3
_ORIGIN
  1

  0
CIRCLE
  5
92
330
8F
100
AcDbEntity
  8
0
  6
ByBlock
 62
     0
370
    -2
100
AcDbCircle
 10
0.0
 20
0.0
 30
0.0
 40
0.5
  0
LINE
  5
93
330
8F
100
AcDbEntity
  8
0
  6
ByBlock
 62
     0
370
    -2
100
AcDbLine
 10
0.0
 20
0.0
 30
0.0
 11
-1.0
 21
0.0
 31
0.0
  0
ENDBLK
  5
91
330
8F
100
AcDbEntity
  8
0
100
AcDbBlockEnd
  0
BLOCK
  5
9A
330
99
100
AcDbEntity
  8
0
100
AcDbBlockBegin
  2
SW_BLOCK_DIMENSION_1
 70
     0
 10
0.0
 20
0.0
 30
0.0
  3
SW_BLOCK_DIMENSION_1
  1

  0
SOLID
  5
9C
330
99
100
AcDbEntity
  8
EBENE_1
 62
     0
100
AcDbTrace
 10
-1.5805038061
 20
2.3665509652
 30
0.0
 11
-2.0546549479
 21
-0.7154314566
 31
0.0
 12
-1.1063526643
 22
-0.7154314566
 32
0.0
 13
-1.1063526643
 23
-0.7154314566
 33
0.0
  0
LINE
  5
9D
330
99
100
AcDbEntity
  8
EBENE_1
 62
     0
100
AcDbLine
 10
-10.3062660664
 20
2.3665509652
 30
0.0
 11
0.0
 21
2.3665509652
 31
0.0
  0
LINE
  5
9E
330
99
100
AcDbEntity
  8
EBENE_1
 62
     0
100
AcDbLine
 10
-1.5805038061
 20
-7.6334490348
 30
0.0
 11
-1.5805038061
 21
2.3665509652
 31
0.0
  0
MTEXT
  5
9F
330
99
100
AcDbEntity
  8
EBENE_1
 62
     0
100
AcDbMText
 10
0.0
 20
4.0927900738
 30
0.0
 40
3.175
 41
0.0
 71
     1
 72
     1
  1
10
  7
SLDTEXTSTYLE0
 73
     1
 44
1.0
  0
ENDBLK
  5
9B
330
99
100
AcDbEntity
  8
0
100
AcDbBlockEnd
  0
BLOCK
  5
A2
330
A1
100
AcDbEntity
  8
0
100
AcDbBlockBegin
  2
SW_BLOCK_DIMENSION_2
 70
     0
 10
0.0
 20
0.0
 30
0.0
  3
SW_BLOCK_DIMENSION_2
  1

  0
SOLID
  5
A4
330
A1
100
AcDbEntity
  8
EBENE_1
 62
     0
100
AcDbTrace
 10
-1.5805038061
 20
2.3665509652
 30
0.0
 11
-2.0546549479
 21
-0.7154314566
 31
0.0
 12
-1.1063526643
 22
-0.7154314566
 32
0.0
 13
-1.1063526643
 23
-0.7154314566
 33
0.0
  0
LINE
  5
A5
330
A1
100
AcDbEntity
  8
EBENE_1
 62
     0
100
AcDbLine
 10
-10.3062660664
 20
2.3665509652
 30
0.0
 11
0.0
 21
2.3665509652
 31
0.0
  0
LINE
  5
A6
330
A1
100
AcDbEntity
  8
EBENE_1
 62
     0
100
AcDbLine
 10
-1.5805038061
 20
-7.6334490348
 30
0.0
 11
-1.5805038061
 21
2.3665509652
 31
0.0
  0
MTEXT
  5
A7
330
A1
100
AcDbEntity
  8
EBENE_1
 62
     0
100
AcDbMText
 10
0.0
 20
4.0927900738
 30
0.0
 40
3.175
 41
0.0
 71
     1
 72
     1
  1
20
  7
SLDTEXTSTYLE0
 73
     1
 44
1.0
  0
ENDBLK
  5
A3
330
A1
100
AcDbEntity
  8
0
100
AcDbBlockEnd
  0
BLOCK
  5
AA
330
A9
100
AcDbEntity
  8
0
100
AcDbBlockBegin
  2
SW_BLOCK_DIMENSION_3
 70
     0
 10
0.0
 20
0.0
 30
0.0
  3
SW_BLOCK_DIMENSION_3
  1

  0
SOLID
  5
AC
330
A9
100
AcDbEntity
  8
EBENE_1
 62
     0
100
AcDbTrace
 10
-1.5805038061
 20
2.3665509652
 30
0.0
 11
-2.0546549479
 21
-0.7154314566
 31
0.0
 12
-1.1063526643
 22
-0.7154314566
 32
0.0
 13
-1.1063526643
 23
-0.7154314566
 33
0.0
  0
LINE
  5
AD
330
A9
100
AcDbEntity
  8
EBENE_1
 62
     0
100
AcDbLine
 10
-10.3062660664
 20
2.3665509652
 30
0.0
 11
0.0
 21
2.3665509652
 31
0.0
  0
LINE
  5
AE
330
A9
100
AcDbEntity
  8
EBENE_1
 62
     0
100
AcDbLine
 10
-1.5805038061
 20
-7.6334490348
 30
0.0
 11
-1.5805038061
 21
2.3665509652
 31
0.0
  0
MTEXT
  5
AF
330
A9
100
AcDbEntity
  8
EBENE_1
 62
     0
100
AcDbMText
 10
0.0
 20
4.0927900738
 30
0.0
 40
3.175
 41
0.0
 71
     1
 72
     1
  1
30
  7
SLDTEXTSTYLE0
 73
     1
 44
1.0
  0
ENDBLK
  5
AB
330
A9
100
AcDbEntity
  8
0
100
AcDbBlockEnd
  0
BLOCK
  5
B2
330
B1
100
AcDbEntity
  8
0
100
AcDbBlockBegin
  2
SW_BLOCK_DIMENSION_4
 70
     0
 10
0.0
 20
0.0
 30
0.0
  3
SW_BLOCK_DIMENSION_4
  1

  0
SOLID
  5
B4
330
B1
100
AcDbEntity
  8
EBENE_1
 62
     0
100
AcDbTrace
 10
-1.5805038061
 20
2.3665509652
 30
0.0
 11
-2.0546549479
 21
-0.7154314566
 31
0.0
 12
-1.1063526643
 22
-0.7154314566
 32
0.0
 13
-1.1063526643
 23
-0.7154314566
 33
0.0
  0
LINE
  5
B5
330
B1
100
AcDbEntity
  8
EBENE_1
 62
     0
100
AcDbLine
 10
-10.3062660664
 20
2.3665509652
 30
0.0
 11
0.0
 21
2.3665509652
 31
0.0
  0
LINE
  5
B6
330
B1
100
AcDbEntity
  8
EBENE_1
 62
     0
100
AcDbLine
 10
-1.5805038061
 20
-7.6334490348
 30
0.0
 11
-1.5805038061
 21
2.3665509652
 31
0.0
  0
MTEXT
  5
B7
330
B1
100
AcDbEntity
  8
EBENE_1
 62
     0
100
AcDbMText
 10
0.0
 20
4.0927900738
 30
0.0
 40
3.175
 41
0.0
 71
     1
 72
     1
  1
40
  7
SLDTEXTSTYLE0
 73
     1
 44
1.0
  0
ENDBLK
  5
B3
330
B1
100
AcDbEntity
  8
0
100
AcDbBlockEnd
  0
BLOCK
  5
BA
330
B9
100
AcDbEntity
  8
0
100
AcDbBlockBegin
  2
SW_BLOCK_DIMENSION_5
 70
     0
 10
0.0
 20
0.0
 30
0.0
  3
SW_BLOCK_DIMENSION_5
  1

  0
SOLID
  5
BC
330
B9
100
AcDbEntity
  8
EBENE_1
 62
     0
100
AcDbTrace
 10
-1.5805038061
 20
2.3665509652
 30
0.0
 11
-2.0546549479
 21
-0.7154314566
 31
0.0
 12
-1.1063526643
 22
-0.7154314566
 32
0.0
 13
-1.1063526643
 23
-0.7154314566
 33
0.0
  0
LINE
  5
BD
330
B9
100
AcDbEntity
  8
EBENE_1
 62
     0
100
AcDbLine
 10
-10.3062660664
 20
2.3665509652
 30
0.0
 11
0.0
 21
2.3665509652
 31
0.0
  0
LINE
  5
BE
330
B9
100
AcDbEntity
  8
EBENE_1
 62
     0
100
AcDbLine
 10
-1.5805038061
 20
-7.6334490348
 30
0.0
 11
-1.5805038061
 21
2.3665509652
 31
0.0
  0
MTEXT
  5
BF
330
B9
100
AcDbEntity
  8
EBENE_1
 62
     0
100
AcDbMText
 10
0.0
 20
4.0927900738
 30
0.0
 40
3.175
 41
0.0
 71
     1
 72
     1
  1
50
  7
SLDTEXTSTYLE0
 73
     1
 44
1.0
  0
ENDBLK
  5
BB
330
B9
100
AcDbEntity
  8
0
100
AcDbBlockEnd
  0
BLOCK
  5
C2
330
C1
100
AcDbEntity
  8
0
100
AcDbBlockBegin
  2
SW_BLOCK_DIMENSION_6
 70
     0
 10
0.0
 20
0.0
 30
0.0
  3
SW_BLOCK_DIMENSION_6
  1

  0
SOLID
  5
C4
330
C1
100
AcDbEntity
  8
EBENE_1
 62
     0
100
AcDbTrace
 10
-1.5805038061
 20
2.3665509652
 30
0.0
 11
-2.0546549479
 21
-0.7154314566
 31
0.0
 12
-1.1063526643
 22
-0.7154314566
 32
0.0
 13
-1.1063526643
 23
-0.7154314566
 33
0.0
  0
LINE
  5
C5
330
C1
100
AcDbEntity
  8
EBENE_1
 62
     0
100
AcDbLine
 10
-10.3062660664
 20
2.3665509652
 30
0.0
 11
0.0
 21
2.3665509652
 31
0.0
  0
LINE
  5
C6
330
C1
100
AcDbEntity
  8
EBENE_1
 62
     0
100
AcDbLine
 10
-1.5805038061
 20
-7.6334490348
 30
0.0
 11
-1.5805038061
 21
2.3665509652
 31
0.0
  0
MTEXT
  5
C7
330
C1
100
AcDbEntity
  8
EBENE_1
 62
     0
100
AcDbMText
 10
0.0
 20
4.0927900738
 30
0.0
 40
3.175
 41
0.0
 71
     1
 72
     1
  1
60
  7
SLDTEXTSTYLE0
 73
     1
 44
1.0
  0
ENDBLK
  5
C3
330
C1
100
AcDbEntity
  8
0
100
AcDbBlockEnd
  0
BLOCK
  5
CA
330
C9
100
AcDbEntity
  8
0
100
AcDbBlockBegin
  2
SW_BLOCK_DIMENSION_7
 70
     0
 10
0.0
 20
0.0
 30
0.0
  3
SW_BLOCK_DIMENSION_7
  1

  0
SOLID
  5
CC
330
C9
100
AcDbEntity
  8
EBENE_1
 62
     0
100
AcDbTrace
 10
-1.5805038061
 20
2.3665509652
 30
0.0
 11
-2.0546549479
 21
-0.7154314566
 31
0.0
 12
-1.1063526643
 22
-0.7154314566
 32
0.0
 13
-1.1063526643
 23
-0.7154314566
 33
0.0
  0
LINE
  5
CD
330
C9
100
AcDbEntity
  8
EBENE_1
 62
     0
100
AcDbLine
 10
-10.3062660664
 20
2.3665509652
 30
0.0
 11
0.0
 21
2.3665509652
 31
0.0
  0
LINE
  5
CE
330
C9
100
AcDbEntity
  8
EBENE_1
 62
     0
100
AcDbLine
 10
-1.5805038061
 20
-7.6334490348
 30
0.0
 11
-1.5805038061
 21
2.3665509652
 31
0.0
  0
MTEXT
  5
CF
330
C9
100
AcDbEntity
  8
EBENE_1
 62
     0
100
AcDbMText
 10
0.0
 20
4.0927900738
 30
0.0
 40
3.175
 41
0.0
 71
     1
 72
     1
  1
70
  7
SLDTEXTSTYLE0
 73
     1
 44
1.0
  0
ENDBLK
  5
CB
330
C9
100
AcDbEntity
  8
0
100
AcDbBlockEnd
  0
BLOCK
  5
D2
330
D1
100
AcDbEntity
  8
0
100
AcDbBlockBegin
  2
SW_BLOCK_DIMENSION_8
 70
     0
 10
0.0
 20
0.0
 30
0.0
  3
SW_BLOCK_DIMENSION_8
  1

  0
SOLID
  5
D4
330
D1
100
AcDbEntity
  8
EBENE_1
 62
     0
100
AcDbTrace
 10
-1.5805038061
 20
2.3665509652
 30
0.0
 11
-2.0546549479
 21
-0.7154314566
 31
0.0
 12
-1.1063526643
 22
-0.7154314566
 32
0.0
 13
-1.1063526643
 23
-0.7154314566
 33
0.0
  0
LINE
  5
D5
330
D1
100
AcDbEntity
  8
EBENE_1
 62
     0
100
AcDbLine
 10
-10.3062660664
 20
2.3665509652
 30
0.0
 11
0.0
 21
2.3665509652
 31
0.0
  0
LINE
  5
D6
330
D1
100
AcDbEntity
  8
EBENE_1
 62
     0
100
AcDbLine
 10
-1.5805038061
 20
-7.6334490348
 30
0.0
 11
-1.5805038061
 21
2.3665509652
 31
0.0
  0
MTEXT
  5
D7
330
D1
100
AcDbEntity
  8
EBENE_1
 62
     0
100
AcDbMText
 10
0.0
 20
4.0927900738
 30
0.0
 40
3.175
 41
0.0
 71
     1
 72
     1
  1
80
  7
SLDTEXTSTYLE0
 73
     1
 44
1.0
  0
ENDBLK
  5
D3
330
D1
100
AcDbEntity
  8
0
100
AcDbBlockEnd
  0
BLOCK
  5
DA
330
D9
100
AcDbEntity
  8
0
100
AcDbBlockBegin
  2
SW_BLOCK_DIMENSION_9
 70
     0
 10
0.0
 20
0.0
 30
0.0
  3
SW_BLOCK_DIMENSION_9
  1

  0
SOLID
  5
DC
330
D9
100
AcDbEntity
  8
EBENE_1
 62
     0
100
AcDbTrace
 10
-1.5805038061
 20
2.3665509652
 30
0.0
 11
-2.0546549479
 21
-0.7154314566
 31
0.0
 12
-1.1063526643
 22
-0.7154314566
 32
0.0
 13
-1.1063526643
 23
-0.7154314566
 33
0.0
  0
LINE
  5
DD
330
D9
100
AcDbEntity
  8
EBENE_1
 62
     0
100
AcDbLine
 10
-10.3062660664
 20
2.3665509652
 30
0.0
 11
0.0
 21
2.3665509652
 31
0.0
  0
LINE
  5
DE
330
D9
100
AcDbEntity
  8
EBENE_1
 62
     0
100
AcDbLine
 10
-1.5805038061
 20
-7.6334490348
 30
0.0
 11
-1.5805038061
 21
2.3665509652
 31
0.0
  0
MTEXT
  5
DF
330
D9
100
AcDbEntity
  8
EBENE_1
 62
     0
100
AcDbMText
 10
0.0
 20
4.0927900738
 30
0.0
 40
3.175
 41
0.0
 71
     1
 72
     1
  1
90
  7
SLDTEXTSTYLE0
 73
     1
 44
1.0
  0
ENDBLK
  5
DB
330
D9
100
AcDbEntity
  8
0
100
AcDbBlockEnd
  0
BLOCK
  5
E2
330
E1
100
AcDbEntity
  8
0
100
AcDbBlockBegin
  2
SW_BLOCK_DIMENSION_10
 70
     0
 10
0.0
 20
0.0
 30
0.0
  3
SW_BLOCK_DIMENSION_10
  1

  0
SOLID
  5
E4
330
E1
100
AcDbEntity
  8
EBENE_1
 62
     0
100
AcDbTrace
 10
-1.5805038061
 20
2.3665509652
 30
0.0
 11
-2.0546549479
 21
-0.7154314566
 31
0.0
 12
-1.1063526643
 22
-0.7154314566
 32
0.0
 13
-1.1063526643
 23
-0.7154314566
 33
0.0
  0
LINE
  5
E5
330
E1
100
AcDbEntity
  8
EBENE_1
 62
     0
100
AcDbLine
 10
-10.3062660664
 20
2.3665509652
 30
0.0
 11
0.0
 21
2.3665509652
 31
0.0
  0
LINE
  5
E6
330
E1
100
AcDbEntity
  8
EBENE_1
 62
     0
100
AcDbLine
 10
-1.5805038061
 20
-7.6334490348
 30
0.0
 11
-1.5805038061
 21
2.3665509652
 31
0.0
  0
MTEXT
  5
E7
330
E1
100
AcDbEntity
  8
EBENE_1
 62
     0
100
AcDbMText
 10
0.0
 20
4.0927900738
 30
0.0
 40
3.175
 41
0.0
 71
     1
 72
     1
  1
100
  7
SLDTEXTSTYLE0
 73
     1
 44
1.0
  0
ENDBLK
  5
E3
330
E1
100
AcDbEntity
  8
0
100
AcDbBlockEnd
  0
BLOCK
  5
EA
330
E9
100
AcDbEntity
  8
0
100
AcDbBlockBegin
  2
SW_BLOCK_DIMENSION_11
 70
     0
 10
0.0
 20
0.0
 30
0.0
  3
SW_BLOCK_DIMENSION_11
  1

  0
SOLID
  5
EC
330
E9
100
AcDbEntity
  8
EBENE_1
 62
     0
100
AcDbTrace
 10
-1.5805038061
 20
2.3665509652
 30
0.0
 11
-2.0546549479
 21
-0.7154314566
 31
0.0
 12
-1.1063526643
 22
-0.7154314566
 32
0.0
 13
-1.1063526643
 23
-0.7154314566
 33
0.0
  0
LINE
  5
ED
330
E9
100
AcDbEntity
  8
EBENE_1
 62
     0
100
AcDbLine
 10
-10.3062660664
 20
2.3665509652
 30
0.0
 11
0.0
 21
2.3665509652
 31
0.0
  0
LINE
  5
EE
330
E9
100
AcDbEntity
  8
EBENE_1
 62
     0
100
AcDbLine
 10
-1.5805038061
 20
-7.6334490348
 30
0.0
 11
-1.5805038061
 21
2.3665509652
 31
0.0
  0
MTEXT
  5
EF
330
E9
100
AcDbEntity
  8
EBENE_1
 62
     0
100
AcDbMText
 10
0.0
 20
4.0927900738
 30
0.0
 40
3.175
 41
0.0
 71
     1
 72
     1
  1
110
  7
SLDTEXTSTYLE0
 73
     1
 44
1.0
  0
ENDBLK
  5
EB
330
E9
100
AcDbEntity
  8
0
100
AcDbBlockEnd
  0
BLOCK
  5
F2
330
F1
100
AcDbEntity
  8
0
100
AcDbBlockBegin
  2
SW_BLOCK_DIMENSION_12
 70
     0
 10
0.0
 20
0.0
 30
0.0
  3
SW_BLOCK_DIMENSION_12
  1

  0
SOLID
  5
F4
330
F1
100
AcDbEntity
  8
EBENE_1
 62
     0
100
AcDbTrace
 10
-1.5805038061
 20
2.3665509652
 30
0.0
 11
-2.0546549479
 21
-0.7154314566
 31
0.0
 12
-1.1063526643
 22
-0.7154314566
 32
0.0
 13
-1.1063526643
 23
-0.7154314566
 33
0.0
  0
LINE
  5
F5
330
F1
100
AcDbEntity
  8
EBENE_1
 62
     0
100
AcDbLine
 10
-10.3062660664
 20
2.3665509652
 30
0.0
 11
0.0
 21
2.3665509652
 31
0.0
  0
LINE
  5
F6
330
F1
100
AcDbEntity
  8
EBENE_1
 62
     0
100
AcDbLine
 10
-1.5805038061
 20
-7.6334490348
 30
0.0
 11
-1.5805038061
 21
2.3665509652
 31
0.0
  0
MTEXT
  5
F7
330
F1
100
AcDbEntity
  8
EBENE_1
 62
     0
100
AcDbMText
 10
0.0
 20
4.0927900738
 30
0.0
 40
3.175
 41
0.0
 71
     1
 72
     1
  1
120
  7
SLDTEXTSTYLE0
 73
     1
 44
1.0
  0
ENDBLK
  5
F3
330
F1
100
AcDbEntity
  8
0
100
AcDbBlockEnd
  0
BLOCK
  5
FA
330
F9
100
AcDbEntity
  8
0
100
AcDbBlockBegin
  2
SW_BLOCK_DIMENSION_13
 70
     0
 10
0.0
 20
0.0
 30
0.0
  3
SW_BLOCK_DIMENSION_13
  1

  0
SOLID
  5
FC
330
F9
100
AcDbEntity
  8
EBENE_1
 62
     0
100
AcDbTrace
 10
-1.5805038061
 20
2.3665509652
 30
0.0
 11
-2.0546549479
 21
-0.7154314566
 31
0.0
 12
-1.1063526643
 22
-0.7154314566
 32
0.0
 13
-1.1063526643
 23
-0.7154314566
 33
0.0
  0
LINE
  5
FD
330
F9
100
AcDbEntity
  8
EBENE_1
 62
     0
100
AcDbLine
 10
-10.3062660664
 20
2.3665509652
 30
0.0
 11
0.0
 21
2.3665509652
 31
0.0
  0
LINE
  5
FE
330
F9
100
AcDbEntity
  8
EBENE_1
 62
     0
100
AcDbLine
 10
-1.5805038061
 20
-7.6334490348
 30
0.0
 11
-1.5805038061
 21
2.3665509652
 31
0.0
  0
MTEXT
  5
FF
330
F9
100
AcDbEntity
  8
EBENE_1
 62
     0
100
AcDbMText
 10
0.0
 20
4.0927900738
 30
0.0
 40
3.175
 41
0.0
 71
     1
 72
     1
  1
130
  7
SLDTEXTSTYLE0
 73
     1
 44
1.0
  0
ENDBLK
  5
FB
330
F9
100
AcDbEntity
  8
0
100
AcDbBlockEnd
  0
BLOCK
  5
102
330
101
100
AcDbEntity
  8
0
100
AcDbBlockBegin
  2
SW_BLOCK_DIMENSION_14
 70
     0
 10
0.0
 20
0.0
 30
0.0
  3
SW_BLOCK_DIMENSION_14
  1

  0
INSERT
  5
104
330
101
100
AcDbEntity
  8
EBENE_1
 62
     0
100
AcDbBlockReference
  2
_ORIGIN
 10
16.3971707594
 20
5.1887726877
 30
0.0
 41
0.9483022837
 42
0.9483022837
 50
0.0
  0
LINE
  5
105
330
101
100
AcDbEntity
  8
EBENE_1
 62
     0
100
AcDbLine
 10
3.2925925916
 20
9.671990294
 30
0.0
 11
2.2342592711
 21
9.671990294
 31
0.0
  0
LINE
  5
106
330
101
100
AcDbEntity
  8
EBENE_1
 62
     0
100
AcDbLine
 10
2.2342592711
 20
9.671990294
 30
0.0
 11
2.2342592711
 21
4.9388883635
 31
0.0
  0
LINE
  5
107
330
101
100
AcDbEntity
  8
EBENE_1
 62
     0
100
AcDbLine
 10
2.2342592711
 20
4.9388883635
 30
0.0
 11
3.2925925916
 21
4.9388883635
 31
0.0
  0
LINE
  5
108
330
101
100
AcDbEntity
  8
EBENE_1
 62
     0
100
AcDbLine
 10
11.5240741288
 20
9.671990294
 30
0.0
 11
12.5824074494
 21
9.671990294
 31
0.0
  0
LINE
  5
109
330
101
100
AcDbEntity
  8
EBENE_1
 62
     0
100
AcDbLine
 10
12.5824074494
 20
9.671990294
 30
0.0
 11
12.5824074494
 21
4.9388883635
 31
0.0
  0
LINE
  5
10A
330
101
100
AcDbEntity
  8
EBENE_1
 62
     0
100
AcDbLine
 10
12.5824074494
 20
4.9388883635
 30
0.0
 11
11.5240741288
 21
4.9388883635
 31
0.0
  0
LINE
  5
10B
330
101
100
AcDbEntity
  8
EBENE_1
 62
     0
100
AcDbLine
 10
24.38463321
 20
5.1887726877
 30
0.0
 11
14.8166669533
 21
5.1887726877
 31
0.0
  0
MTEXT
  5
10C
330
101
100
AcDbEntity
  8
EBENE_1
 62
     0
100
AcDbMText
 10
1.190625
 20
4.0927900738
 30
0.0
 40
3.175
 41
0.0
 71
     1
 72
     1
  1

  7
SLDTEXTSTYLE0
 73
     1
 44
1.0
  0
MTEXT
  5
10D
330
101
100
AcDbEntity
  8
EBENE_1
 62
     0
100
AcDbMText
 10
3.2925925916
 20
9.0316784373
 30
0.0
 40
3.175
 41
0.0
 71
     1
 72
     1
  1
0,00
  7
SLDTEXTSTYLE0
 73
     1
 44
1.0
  0
MTEXT
  5
10E
330
101
100
AcDbEntity
  8
EBENE_1
 62
     0
100
AcDbMText
 10
6.2324074097
 20
4.0927898409
 30
0.0
 40
3.175
 41
0.0
 71
     1
 72
     1
  1
0
  7
SLDTEXTSTYLE0
 73
     1
 44
1.0
  0
MTEXT
  5
10F
330
101
100
AcDbEntity
  8
EBENE_1
 62
     0
100
AcDbMText
 10
14.8313658863
 20
4.0927900738
 30
0.0
 40
3.175
 41
0.0
 71
     1
 72
     1
  1

  7
SLDTEXTSTYLE0
 73
     1
 44
1.0
  0
ENDBLK
  5
103
330
101
100
AcDbEntity
  8
0
100
AcDbBlockEnd
  0
BLOCK
  5
112
330
111
100
AcDbEntity
  8
0
100
AcDbBlockBegin
  2
SW_BLOCK_DIMENSION_15
 70
     0
 10
0.0
 20
0.0
 30
0.0
  3
SW_BLOCK_DIMENSION_15
  1

  0
SOLID
  5
114
330
111
100
AcDbEntity
  8
EBENE_1
 62
     0
100
AcDbTrace
 10
16.3971707594
 20
5.1887726877
 30
0.0
 11
15.9230196175
 21
2.1067902658
 31
0.0
 12
16.8713219012
 22
2.1067902658
 32
0.0
 13
16.8713219012
 23
2.1067902658
 33
0.0
  0
LINE
  5
115
330
111
100
AcDbEntity
  8
EBENE_1
 62
     0
100
AcDbLine
 10
3.2925925916
 20
9.671990294
 30
0.0
 11
2.2342592711
 21
9.671990294
 31
0.0
  0
LINE
  5
116
330
111
100
AcDbEntity
  8
EBENE_1
 62
     0
100
AcDbLine
 10
2.2342592711
 20
9.671990294
 30
0.0
 11
2.2342592711
 21
4.9388883635
 31
0.0
  0
LINE
  5
117
330
111
100
AcDbEntity
  8
EBENE_1
 62
     0
100
AcDbLine
 10
2.2342592711
 20
4.9388883635
 30
0.0
 11
3.2925925916
 21
4.9388883635
 31
0.0
  0
LINE
  5
118
330
111
100
AcDbEntity
  8
EBENE_1
 62
     0
100
AcDbLine
 10
11.5240741288
 20
9.671990294
 30
0.0
 11
12.5824074494
 21
9.671990294
 31
0.0
  0
LINE
  5
119
330
111
100
AcDbEntity
  8
EBENE_1
 62
     0
100
AcDbLine
 10
12.5824074494
 20
9.671990294
 30
0.0
 11
12.5824074494
 21
4.9388883635
 31
0.0
  0
LINE
  5
11A
330
111
100
AcDbEntity
  8
EBENE_1
 62
     0
100
AcDbLine
 10
12.5824074494
 20
4.9388883635
 30
0.0
 11
11.5240741288
 21
4.9388883635
 31
0.0
  0
LINE
  5
11B
330
111
100
AcDbEntity
  8
EBENE_1
 62
     0
100
AcDbLine
 10
23.60463321
 20
5.1887726877
 30
0.0
 11
14.8166669533
 21
5.1887726877
 31
0.0
  0
LINE
  5
11C
330
111
100
AcDbEntity
  8
EBENE_1
 62
     0
100
AcDbLine
 10
16.3971707594
 20
-20.2112273123
 30
0.0
 11
16.3971707594
 21
5.1887726877
 31
0.0
  0
MTEXT
  5
11D
330
111
100
AcDbEntity
  8
EBENE_1
 62
     0
100
AcDbMText
 10
1.190625
 20
4.0927900738
 30
0.0
 40
3.175
 41
0.0
 71
     1
 72
     1
  1

  7
SLDTEXTSTYLE0
 73
     1
 44
1.0
  0
MTEXT
  5
11E
330
111
100
AcDbEntity
  8
EBENE_1
 62
     0
100
AcDbMText
 10
3.2925925916
 20
9.0316784373
 30
0.0
 40
3.175
 41
0.0
 71
     1
 72
     1
  1
1,00
  7
SLDTEXTSTYLE0
 73
     1
 44
1.0
  0
MTEXT
  5
11F
330
111
100
AcDbEntity
  8
EBENE_1
 62
     0
100
AcDbMText
 10
2.1166665247
 20
4.0927898409
 30
0.0
 40
3.175
 41
0.0
 71
     1
 72
     1
  1
25,40
  7
SLDTEXTSTYLE0
 73
     1
 44
1.0
  0
MTEXT
  5
120
330
111
100
AcDbEntity
  8
EBENE_1
 62
     0
100
AcDbMText
 10
14.8313658863
 20
4.0927900738
 30
0.0
 40
3.175
 41
0.0
 71
     1
 72
     1
  1

  7
SLDTEXTSTYLE0
 73
     1
 44
1.0
  0
ENDBLK
  5
113
330
111
100
AcDbEntity
  8
0
100
AcDbBlockEnd
  0
BLOCK
  5
123
330
122
100
AcDbEntity
  8
0
100
AcDbBlockBegin
  2
SW_BLOCK_DIMENSION_16
 70
     0
 10
0.0
 20
0.0
 30
0.0
  3
SW_BLOCK_DIMENSION_16
  1

  0
SOLID
  5
125
330
122
100
AcDbEntity
  8
EBENE_1
 62
     0
100
AcDbTrace
 10
16.3971707594
 20
5.1887726877
 30
0.0
 11
15.9230196175
 21
2.1067902658
 31
0.0
 12
16.8713219012
 22
2.1067902658
 32
0.0
 13
16.8713219012
 23
2.1067902658
 33
0.0
  0
LINE
  5
126
330
122
100
AcDbEntity
  8
EBENE_1
 62
     0
100
AcDbLine
 10
3.2925925916
 20
9.671990294
 30
0.0
 11
2.2342592711
 21
9.671990294
 31
0.0
  0
LINE
  5
127
330
122
100
AcDbEntity
  8
EBENE_1
 62
     0
100
AcDbLine
 10
2.2342592711
 20
9.671990294
 30
0.0
 11
2.2342592711
 21
4.9388883635
 31
0.0
  0
LINE
  5
128
330
122
100
AcDbEntity
  8
EBENE_1
 62
     0
100
AcDbLine
 10
2.2342592711
 20
4.9388883635
 30
0.0
 11
3.2925925916
 21
4.9388883635
 31
0.0
  0
LINE
  5
129
330
122
100
AcDbEntity
  8
EBENE_1
 62
     0
100
AcDbLine
 10
11.5240741288
 20
9.671990294
 30
0.0
 11
12.5824074494
 21
9.671990294
 31
0.0
  0
LINE
  5
12A
330
122
100
AcDbEntity
  8
EBENE_1
 62
     0
100
AcDbLine
 10
12.5824074494
 20
9.671990294
 30
0.0
 11
12.5824074494
 21
4.9388883635
 31
0.0
  0
LINE
  5
12B
330
122
100
AcDbEntity
  8
EBENE_1
 62
     0
100
AcDbLine
 10
12.5824074494
 20
4.9388883635
 30
0.0
 11
11.5240741288
 21
4.9388883635
 31
0.0
  0
LINE
  5
12C
330
122
100
AcDbEntity
  8
EBENE_1
 62
     0
100
AcDbLine
 10
23.60463321
 20
5.1887726877
 30
0.0
 11
14.8166669533
 21
5.1887726877
 31
0.0
  0
LINE
  5
12D
330
122
100
AcDbEntity
  8
EBENE_1
 62
     0
100
AcDbLine
 10
16.3971707594
 20
-20.2112273123
 30
0.0
 11
16.3971707594
 21
5.1887726877
 31
0.0
  0
MTEXT
  5
12E
330
122
100
AcDbEntity
  8
EBENE_1
 62
     0
100
AcDbMText
 10
1.190625
 20
4.0927900738
 30
0.0
 40
3.175
 41
0.0
 71
     1
 72
     1
  1

  7
SLDTEXTSTYLE0
 73
     1
 44
1.0
  0
MTEXT
  5
12F
330
122
100
AcDbEntity
  8
EBENE_1
 62
     0
100
AcDbMText
 10
3.2925925916
 20
9.0316784373
 30
0.0
 40
3.175
 41
0.0
 71
     1
 72
     1
  1
2,00
  7
SLDTEXTSTYLE0
 73
     1
 44
1.0
  0
MTEXT
  5
130
330
122
100
AcDbEntity
  8
EBENE_1
 62
     0
100
AcDbMText
 10
2.1166665247
 20
4.0927898409
 30
0.0
 40
3.175
 41
0.0
 71
     1
 72
     1
  1
50,80
  7
SLDTEXTSTYLE0
 73
     1
 44
1.0
  0
MTEXT
  5
131
330
122
100
AcDbEntity
  8
EBENE_1
 62
     0
100
AcDbMText
 10
14.8313658863
 20
4.0927900738
 30
0.0
 40
3.175
 41
0.0
 71
     1
 72
     1
  1

  7
SLDTEXTSTYLE0
 73
     1
 44
1.0
  0
ENDBLK
  5
124
330
122
100
AcDbEntity
  8
0
100
AcDbBlockEnd
  0
BLOCK
  5
134
330
133
100
AcDbEntity
  8
0
100
AcDbBlockBegin
  2
SW_BLOCK_DIMENSION_17
 70
     0
 10
0.0
 20
0.0
 30
0.0
  3
SW_BLOCK_DIMENSION_17
  1

  0
SOLID
  5
136
330
133
100
AcDbEntity
  8
EBENE_1
 62
     0
100
AcDbTrace
 10
16.3971707594
 20
5.1887726877
 30
0.0
 11
15.9230196175
 21
2.1067902658
 31
0.0
 12
16.8713219012
 22
2.1067902658
 32
0.0
 13
16.8713219012
 23
2.1067902658
 33
0.0
  0
LINE
  5
137
330
133
100
AcDbEntity
  8
EBENE_1
 62
     0
100
AcDbLine
 10
3.2925925916
 20
9.671990294
 30
0.0
 11
2.2342592711
 21
9.671990294
 31
0.0
  0
LINE
  5
138
330
133
100
AcDbEntity
  8
EBENE_1
 62
     0
100
AcDbLine
 10
2.2342592711
 20
9.671990294
 30
0.0
 11
2.2342592711
 21
4.9388883635
 31
0.0
  0
LINE
  5
139
330
133
100
AcDbEntity
  8
EBENE_1
 62
     0
100
AcDbLine
 10
2.2342592711
 20
4.9388883635
 30
0.0
 11
3.2925925916
 21
4.9388883635
 31
0.0
  0
LINE
  5
13A
330
133
100
AcDbEntity
  8
EBENE_1
 62
     0
100
AcDbLine
 10
11.5240741288
 20
9.671990294
 30
0.0
 11
12.5824074494
 21
9.671990294
 31
0.0
  0
LINE
  5
13B
330
133
100
AcDbEntity
  8
EBENE_1
 62
     0
100
AcDbLine
 10
12.5824074494
 20
9.671990294
 30
0.0
 11
12.5824074494
 21
4.9388883635
 31
0.0
  0
LINE
  5
13C
330
133
100
AcDbEntity
  8
EBENE_1
 62
     0
100
AcDbLine
 10
12.5824074494
 20
4.9388883635
 30
0.0
 11
11.5240741288
 21
4.9388883635
 31
0.0
  0
LINE
  5
13D
330
133
100
AcDbEntity
  8
EBENE_1
 62
     0
100
AcDbLine
 10
23.60463321
 20
5.1887726877
 30
0.0
 11
14.8166669533
 21
5.1887726877
 31
0.0
  0
LINE
  5
13E
330
133
100
AcDbEntity
  8
EBENE_1
 62
     0
100
AcDbLine
 10
16.3971707594
 20
-20.2112273123
 30
0.0
 11
16.3971707594
 21
5.1887726877
 31
0.0
  0
MTEXT
  5
13F
330
133
100
AcDbEntity
  8
EBENE_1
 62
     0
100
AcDbMText
 10
1.190625
 20
4.0927900738
 30
0.0
 40
3.175
 41
0.0
 71
     1
 72
     1
  1

  7
SLDTEXTSTYLE0
 73
     1
 44
1.0
  0
MTEXT
  5
140
330
133
100
AcDbEntity
  8
EBENE_1
 62
     0
100
AcDbMText
 10
3.2925925916
 20
9.0316784373
 30
0.0
 40
3.175
 41
0.0
 71
     1
 72
     1
  1
3,00
  7
SLDTEXTSTYLE0
 73
     1
 44
1.0
  0
MTEXT
  5
141
330
133
100
AcDbEntity
  8
EBENE_1
 62
     0
100
AcDbMText
 10
2.1166665247
 20
4.0927898409
 30
0.0
 40
3.175
 41
0.0
 71
     1
 72
     1
  1
76,20
  7
SLDTEXTSTYLE0
 73
     1
 44
1.0
  0
MTEXT
  5
142
330
133
100
AcDbEntity
  8
EBENE_1
 62
     0
100
AcDbMText
 10
14.8313658863
 20
4.0927900738
 30
0.0
 40
3.175
 41
0.0
 71
     1
 72
     1
  1

  7
SLDTEXTSTYLE0
 73
     1
 44
1.0
  0
ENDBLK
  5
135
330
133
100
AcDbEntity
  8
0
100
AcDbBlockEnd
  0
BLOCK
  5
145
330
144
100
AcDbEntity
  8
0
100
AcDbBlockBegin
  2
SW_BLOCK_DIMENSION_18
 70
     0
 10
0.0
 20
0.0
 30
0.0
  3
SW_BLOCK_DIMENSION_18
  1

  0
SOLID
  5
147
330
144
100
AcDbEntity
  8
EBENE_1
 62
     0
100
AcDbTrace
 10
16.8675417449
 20
5.1887726877
 30
0.0
 11
16.3933906031
 21
2.1067902658
 31
0.0
 12
17.3416928867
 22
2.1067902658
 32
0.0
 13
17.3416928867
 23
2.1067902658
 33
0.0
  0
LINE
  5
148
330
144
100
AcDbEntity
  8
EBENE_1
 62
     0
100
AcDbLine
 10
3.5277780844
 20
9.671990294
 30
0.0
 11
2.4694447638
 21
9.671990294
 31
0.0
  0
LINE
  5
149
330
144
100
AcDbEntity
  8
EBENE_1
 62
     0
100
AcDbLine
 10
2.4694447638
 20
9.671990294
 30
0.0
 11
2.4694447638
 21
4.9388883635
 31
0.0
  0
LINE
  5
14A
330
144
100
AcDbEntity
  8
EBENE_1
 62
     0
100
AcDbLine
 10
2.4694447638
 20
4.9388883635
 30
0.0
 11
3.5277780844
 21
4.9388883635
 31
0.0
  0
LINE
  5
14B
330
144
100
AcDbEntity
  8
EBENE_1
 62
     0
100
AcDbLine
 10
11.7592596216
 20
9.671990294
 30
0.0
 11
12.8175929422
 21
9.671990294
 31
0.0
  0
LINE
  5
14C
330
144
100
AcDbEntity
  8
EBENE_1
 62
     0
100
AcDbLine
 10
12.8175929422
 20
9.671990294
 30
0.0
 11
12.8175929422
 21
4.9388883635
 31
0.0
  0
LINE
  5
14D
330
144
100
AcDbEntity
  8
EBENE_1
 62
     0
100
AcDbLine
 10
12.8175929422
 20
4.9388883635
 30
0.0
 11
11.7592596216
 21
4.9388883635
 31
0.0
  0
LINE
  5
14E
330
144
100
AcDbEntity
  8
EBENE_1
 62
     0
100
AcDbLine
 10
24.0750041956
 20
5.1887726877
 30
0.0
 11
15.2870379388
 21
5.1887726877
 31
0.0
  0
LINE
  5
14F
330
144
100
AcDbEntity
  8
EBENE_1
 62
     0
100
AcDbLine
 10
16.8675417449
 20
-20.2112273123
 30
0.0
 11
16.8675417449
 21
5.1887726877
 31
0.0
  0
MTEXT
  5
150
330
144
100
AcDbEntity
  8
EBENE_1
 62
     0
100
AcDbMText
 10
1.190625
 20
4.0927900738
 30
0.0
 40
3.175
 41
0.0
 71
     1
 72
     1
  1

  7
SLDTEXTSTYLE0
 73
     1
 44
1.0
  0
MTEXT
  5
151
330
144
100
AcDbEntity
  8
EBENE_1
 62
     0
100
AcDbMText
 10
3.5277780844
 20
9.0316784373
 30
0.0
 40
3.175
 41
0.0
 71
     1
 72
     1
  1
4,00
  7
SLDTEXTSTYLE0
 73
     1
 44
1.0
  0
MTEXT
  5
152
330
144
100
AcDbEntity
  8
EBENE_1
 62
     0
100
AcDbMText
 10
1.1759259505
 20
4.0927898409
 30
0.0
 40
3.175
 41
0.0
 71
     1
 72
     1
  1
101,60
  7
SLDTEXTSTYLE0
 73
     1
 44
1.0
  0
MTEXT
  5
153
330
144
100
AcDbEntity
  8
EBENE_1
 62
     0
100
AcDbMText
 10
15.3017368719
 20
4.0927900738
 30
0.0
 40
3.175
 41
0.0
 71
     1
 72
     1
  1

  7
SLDTEXTSTYLE0
 73
     1
 44
1.0
  0
ENDBLK
  5
146
330
144
100
AcDbEntity
  8
0
100
AcDbBlockEnd
  0
BLOCK
  5
156
330
155
100
AcDbEntity
  8
0
100
AcDbBlockBegin
  2
SW_BLOCK_DIMENSION_19
 70
     0
 10
0.0
 20
0.0
 30
0.0
  3
SW_BLOCK_DIMENSION_19
  1

  0
SOLID
  5
158
330
155
100
AcDbEntity
  8
EBENE_1
 62
     0
100
AcDbTrace
 10
16.3971707594
 20
5.1887726877
 30
0.0
 11
15.9230196175
 21
2.1067902658
 31
0.0
 12
16.8713219012
 22
2.1067902658
 32
0.0
 13
16.8713219012
 23
2.1067902658
 33
0.0
  0
LINE
  5
159
330
155
100
AcDbEntity
  8
EBENE_1
 62
     0
100
AcDbLine
 10
3.2925925916
 20
9.671990294
 30
0.0
 11
2.2342592711
 21
9.671990294
 31
0.0
  0
LINE
  5
15A
330
155
100
AcDbEntity
  8
EBENE_1
 62
     0
100
AcDbLine
 10
2.2342592711
 20
9.671990294
 30
0.0
 11
2.2342592711
 21
4.9388883635
 31
0.0
  0
LINE
  5
15B
330
155
100
AcDbEntity
  8
EBENE_1
 62
     0
100
AcDbLine
 10
2.2342592711
 20
4.9388883635
 30
0.0
 11
3.2925925916
 21
4.9388883635
 31
0.0
  0
LINE
  5
15C
330
155
100
AcDbEntity
  8
EBENE_1
 62
     0
100
AcDbLine
 10
11.5240741288
 20
9.671990294
 30
0.0
 11
12.5824074494
 21
9.671990294
 31
0.0
  0
LINE
  5
15D
330
155
100
AcDbEntity
  8
EBENE_1
 62
     0
100
AcDbLine
 10
12.5824074494
 20
9.671990294
 30
0.0
 11
12.5824074494
 21
4.9388883635
 31
0.0
  0
LINE
  5
15E
330
155
100
AcDbEntity
  8
EBENE_1
 62
     0
100
AcDbLine
 10
12.5824074494
 20
4.9388883635
 30
0.0
 11
11.5240741288
 21
4.9388883635
 31
0.0
  0
LINE
  5
15F
330
155
100
AcDbEntity
  8
EBENE_1
 62
     0
100
AcDbLine
 10
23.60463321
 20
5.1887726877
 30
0.0
 11
14.8166669533
 21
5.1887726877
 31
0.0
  0
LINE
  5
160
330
155
100
AcDbEntity
  8
EBENE_1
 62
     0
100
AcDbLine
 10
16.3971707594
 20
-20.2112273123
 30
0.0
 11
16.3971707594
 21
5.1887726877
 31
0.0
  0
MTEXT
  5
161
330
155
100
AcDbEntity
  8
EBENE_1
 62
     0
100
AcDbMText
 10
1.190625
 20
4.0927900738
 30
0.0
 40
3.175
 41
0.0
 71
     1
 72
     1
  1

  7
SLDTEXTSTYLE0
 73
     1
 44
1.0
  0
MTEXT
  5
162
330
155
100
AcDbEntity
  8
EBENE_1
 62
     0
100
AcDbMText
 10
3.2925925916
 20
9.0316784373
 30
0.0
 40
3.175
 41
0.0
 71
     1
 72
     1
  1
5,00
  7
SLDTEXTSTYLE0
 73
     1
 44
1.0
  0
MTEXT
  5
163
330
155
100
AcDbEntity
  8
EBENE_1
 62
     0
100
AcDbMText
 10
3.8805556251
 20
4.0927898409
 30
0.0
 40
3.175
 41
0.0
 71
     1
 72
     1
  1
127
  7
SLDTEXTSTYLE0
 73
     1
 44
1.0
  0
MTEXT
  5
164
330
155
100
AcDbEntity
  8
EBENE_1
 62
     0
100
AcDbMText
 10
14.8313658863
 20
4.0927900738
 30
0.0
 40
3.175
 41
0.0
 71
     1
 72
     1
  1

  7
SLDTEXTSTYLE0
 73
     1
 44
1.0
  0
ENDBLK
  5
157
330
155
100
AcDbEntity
  8
0
100
AcDbBlockEnd
  0
BLOCK
  5
167
330
166
100
AcDbEntity
  8
0
100
AcDbBlockBegin
  2
SW_NOTE_0
 70
     0
 10
0.0
 20
0.0
 30
0.0
  3
SW_NOTE_0
  1

  0
MTEXT
  5
169
330
166
100
AcDbEntity
  8
EBENE_1
 62
     0
100
AcDbMText
 10
6.7138020833
 20
4.7749217527
 30
0.0
 40
3.7041666667
 41
0.0
 71
     2
 72
     1
  1
(Inch)
  7
SLDTEXTSTYLE0
 73
     1
 44
1.0
  0
MTEXT
  5
16A
330
166
100
AcDbEntity
  8
EBENE_1
 62
     0
100
AcDbMText
 10
6.7309508326
 20
-1.1639672404
 30
0.0
 40
3.7041666667
 41
0.0
 71
     2
 72
     1
  1
mm
  7
SLDTEXTSTYLE0
 73
     1
 44
1.0
  0
ENDBLK
  5
168
330
166
100
AcDbEntity
  8
0
100
AcDbBlockEnd
  0
BLOCK
  5
172
330
171
100
AcDbEntity
  8
0
100
AcDbBlockBegin
  2
SW_NOTE_1
 70
     0
 10
0.0
 20
0.0
 30
0.0
  3
SW_NOTE_1
  1

  0
MTEXT
  5
174
330
171
100
AcDbEntity
  8
0
  6
Continuous
 62
     0
370
     0
100
AcDbMText
 10
19.893359375
 20
4.0927900738
 30
0.0
 40
3.175
 41
0.0
 71
     2
 72
     1
  1
ABP-Beyerle GmbH
  7
SLDTEXTSTYLE0
 73
     1
 44
1.0
  0
MTEXT
  5
175
330
171
100
AcDbEntity
  8
0
  6
Continuous
 62
     0
370
     0
100
AcDbMText
 10
20.6558884293
 20
-0.1405432084
 30
0.0
 40
3.175
 41
0.0
 71
     2
 72
     1
  1
Im Schollengarten 24b, 76646 Bruchsal
  7
SLDTEXTSTYLE0
 73
     1
 44
1.0
  0
MTEXT
  5
176
330
171
100
AcDbEntity
  8
0
  6
Continuous
 62
     0
370
     0
100
AcDbMText
 10
20.7863491923
 20
-4.3738764906
 30
0.0
 40
3.175
 41
0.0
 71
     2
 72
     1
  1
Tel. +49 (0)7251-9127-0, Fax. +49 (0)7251-9127-29
  7
SLDTEXTSTYLE0
 73
     1
 44
1.0
  0
MTEXT
  5
177
330
171
100
AcDbEntity
  8
0
  6
Continuous
 62
     0
370
     0
100
AcDbMText
 10
20.8392552227
 20
-8.6072097727
 30
0.0
 40
3.175
 41
0.0
 71
     2
 72
     1
  1
info@abp-beyerle.de, www.abp-beyerle.de
  7
SLDTEXTSTYLE0
 73
     1
 44
1.0
  0
ENDBLK
  5
173
330
171
100
AcDbEntity
  8
0
100
AcDbBlockEnd
  0
ENDSEC
  0
SECTION
  2
ENTITIES
  0
INSERT
  5
16D
330
1F
100
AcDbEntity
  8
EBENE_1
100
AcDbBlockReference
  2
Block1
 10
19.561342692
 20
-6.9223244521
 30
0.0
  0
MTEXT
  5
16F
330
1F
100
AcDbEntity
  8
0
  6
Continuous
 62
     7
370
     0
100
AcDbMText
 10
402.5
 20
14.7189135832
 30
0.0
 40
6.35
 41
0.0
 71
     1
 72
     1
  1
1:1
  7
SLDTEXTSTYLE1
 73
     1
 44
1.0
  0
MTEXT
  5
170
330
1F
100
AcDbEntity
  8
0
  6
Continuous
 62
     7
370
     0
100
AcDbMText
 10
168.4090458961
 20
14.7189131175
 30
0.0
 40
6.35
 41
0.0
 71
     1
 72
     1
  1
USU46-1800DB
  7
SLDTEXTSTYLE1
 73
     1
 44
1.0
  0
INSERT
  5
178
330
1F
100
AcDbEntity
  8
0
  6
Continuous
 62
     7
370
     0
100
AcDbBlockReference
  2
SW_NOTE_1
 10
35.4202146835
 20
20.1681939512
 30
0.0
  0
LINE
  5
179
330
1F
100
AcDbEntity
  8
0
  6
Continuous
 62
     7
370
    15
100
AcDbLine
 10
1216.1815194001
 20
2170.1837557726
 30
0.0
 11
1155.7940272203
 21
2170.1837557726
 31
0.0
  0
LINE
  5
17A
330
1F
100
AcDbEntity
  8
0
  6
Continuous
 62
     7
370
    15
100
AcDbLine
 10
1124.5690611711
 20
2170.1837557726
 30
0.0
 11
231.1815646997
 21
2170.1837557726
 31
0.0
  0
LINE
  5
17B
330
1F
100
AcDbEntity
  8
0
  6
Continuous
 62
     7
370
    15
100
AcDbLine
 10
201.1815337053
 20
2170.1837557726
 30
0.0
 11
-468.8184373492
 21
2170.1837557726
 31
0.0
  0
LINE
  5
17C
330
1F
100
AcDbEntity
  8
0
  6
Continuous
 62
     7
370
    15
100
AcDbLine
 10
-498.8184394726
 20
2170.1837557726
 30
0.0
 11
-504.2059431264
 21
2170.1837557726
 31
0.0
  0
LINE
  5
17D
330
1F
100
AcDbEntity
  8
0
  6
Continuous
 62
     7
370
    15
100
AcDbLine
 10
-535.4309352526
 20
2170.1837557726
 30
0.0
 11
-583.8184329161
 21
2170.1837557726
 31
0.0
  0
LINE
  5
17E
330
1F
100
AcDbEntity
  8
0
  6
Continuous
 62
     7
370
    15
100
AcDbLine
 10
-583.8184329161
 20
2145.1837554001
 30
0.0
 11
-535.4309352526
 21
2145.1837554001
 31
0.0
  0
LINE
  5
17F
330
1F
100
AcDbEntity
  8
0
  6
Continuous
 62
     7
370
    15
100
AcDbLine
 10
-504.2059431264
 20
2145.1837554001
 30
0.0
 11
-498.8184394726
 21
2145.1837554001
 31
0.0
  0
LINE
  5
180
330
1F
100
AcDbEntity
  8
0
  6
Continuous
 62
     7
370
    15
100
AcDbLine
 10
-468.8184373492
 20
2145.1837554001
 30
0.0
 11
201.1815337053
 21
2145.1837554001
 31
0.0
  0
LINE
  5
181
330
1F
100
AcDbEntity
  8
0
  6
Continuous
 62
     7
370
    15
100
AcDbLine
 10
231.1815646997
 20
2145.1837554001
 30
0.0
 11
1124.5690611711
 21
2145.1837554001
 31
0.0
  0
LINE
  5
182
330
1F
100
AcDbEntity
  8
0
  6
Continuous
 62
     7
370
    15
100
AcDbLine
 10
1155.7940272203
 20
2145.1837554001
 30
0.0
 11
1216.1815194001
 21
2145.1837554001
 31
0.0
  0
LINE
  5
183
330
1F
100
AcDbEntity
  8
0
  6
Continuous
 62
     7
370
    15
100
AcDbLine
 10
214.3844393602
 20
1989.2917977073
 30
0.0
 11
214.5715383401
 21
1989.1837493875
 31
0.0
  0
LINE
  5
184
330
1F
100
AcDbEntity
  8
0
  6
Continuous
 62
     7
370
    15
100
AcDbLine
 10
217.7915600648
 20
1989.1837493875
 30
0.0
 11
217.9787186494
 21
1989.2917977073
 31
0.0
  0
LINE
  5
185
330
1F
100
AcDbEntity
  8
0
  6
Continuous
 62
     7
370
    15
100
AcDbLine
 10
-485.6155785212
 20
1989.2917977073
 30
0.0
 11
-485.4284385631
 21
1989.1837493875
 31
0.0
  0
LINE
  5
186
330
1F
100
AcDbEntity
  8
0
  6
Continuous
 62
     7
370
    15
100
AcDbLine
 10
-482.2084373275
 20
1989.1837493875
 30
0.0
 11
-482.0212955067
 21
1989.2917977073
 31
0.0
  0
LINE
  5
187
330
1F
100
AcDbEntity
  8
0
  6
Continuous
 62
     7
370
    15
100
AcDbLine
 10
1216.1815194001
 20
2157.6837555863
 30
0.0
 11
1216.1815194001
 21
2170.1837557726
 31
0.0
  0
LINE
  5
188
330
1F
100
AcDbEntity
  8
0
  6
Continuous
 62
     7
370
    15
100
AcDbLine
 10
1216.1815194001
 20
2145.1837554001
 30
0.0
 11
1216.1815194001
 21
2157.6837555863
 31
0.0
  0
SPLINE
  5
189
330
1F
100
AcDbEntity
  8
0
  6
Continuous
 62
     7
370
    15
100
AcDbSpline
210
0.0
220
0.0
230
1.0
 70
    11
 71
     3
 72
    28
 73
    24
 74
     0
 42
0.000000001
 43
0.00000001
 40
0.0
 40
0.0
 40
0.0
 40
0.0
 40
0.0475549912339369
 40
0.0949663840914027
 40
0.1460688059136688
 40
0.2034571266385095
 40
0.2467859871683112
 40
0.2901846699182376
 40
0.3330335159656118
 40
0.3834821932836474
 40
0.441091772556306
 40
0.4950480598498694
 40
0.5415898800071755
 40
0.5869404184984441
 40
0.6370238725443281
 40
0.6937077492511204
 40
0.738132159335307
 40
0.7826958035902012
 40
0.8249698619163037
 40
0.8737312140106899
 40
0.9306925711880505
 40
0.9860188963068841
 40
1.0
 40
1.0
 40
1.0
 40
1.0
 10
1093.731525312928
 20
2157.683755586346
 30
0.0
 10
1093.66156963806
 20
2156.910956373752
 30
0.0
 10
1093.521869528428
 20
2155.367691514597
 30
0.0
 10
1092.448908448207
 20
2153.282014021066
 30
0.0
 10
1090.794594372672
 20
2151.530682931274
 30
0.0
 10
1088.666483493864
 20
2150.417144195252
 30
0.0
 10
1086.341029993139
 20
2150.034660397252
 30
0.0
 10
1084.226292969776
 20
2150.292557105201
 30
0.0
 10
1082.231117576706
 20
2151.128343452828
 30
0.0
 10
1080.415120378588
 20
2152.599661421499
 30
0.0
 10
1079.044574544885
 20
2154.769296359413
 30
0.0
 10
1078.504331155894
 20
2157.319017347036
 30
0.0
 10
1078.793112309581
 20
2159.703011587104
 30
0.0
 10
1079.708714199374
 20
2161.780596413125
 30
0.0
 10
1081.249208769243
 20
2163.575399154771
 30
0.0
 10
1083.28356435606
 20
2164.794075866006
 30
0.0
 10
1085.592335425357
 20
2165.316883684687
 30
0.0
 10
1087.755969789817
 20
2165.168092300182
 30
0.0
 10
1089.786116276415
 20
2164.431008127383
 30
0.0
 10
1091.645300465664
 20
2163.083322762799
 30
0.0
 10
1093.120950377672
 20
2161.031679090678
 30
0.0
 10
1093.694062608287
 20
2159.030952988757
 30
0.0
 10
1093.725236692605
 20
2157.909900843222
 30
0.0
 10
1093.731525312928
 20
2157.683755586346
 30
0.0
  0
SPLINE
  5
18A
330
1F
100
AcDbEntity
  8
0
  6
Continuous
 62
     7
370
    15
100
AcDbSpline
210
0.0
220
0.0
230
1.0
 70
     8
 71
     3
 72
    22
 73
    18
 74
     0
 42
0.000000001
 43
0.00000001
 40
0.0
 40
0.0
 40
0.0
 40
0.0
 40
0.0337439396846008
 40
0.1003267776438176
 40
0.1670206317753818
 40
0.2328676690340007
 40
0.3103935825985343
 40
0.3989238573374633
 40
0.4818400146553975
 40
0.5533621499911723
 40
0.6230536089964259
 40
0.7000182735979771
 40
0.7871259949435754
 40
0.8553960671246904
 40
0.9238745213460289
 40
0.9888382660077709
 40
1.0
 40
1.0
 40
1.0
 40
1.0
 10
62.31045998242285
 20
2150.936962886204
 30
0.0
 10
62.01484098480742
 20
2150.765630949801
 30
0.0
 10
61.13591274707703
 20
2150.256230410103
 30
0.0
 10
59.32709667723074
 20
2150.057343107431
 30
0.0
 10
57.22996552391118
 20
2150.286588154126
 30
0.0
 10
55.22994075441018
 20
2151.130241908013
 30
0.0
 10
53.41549728500444
 20
2152.599029830328
 30
0.0
 10
52.04446515868971
 20
2154.769467239817
 30
0.0
 10
51.50433363941814
 20
2157.318966962739
 30
0.0
 10
51.79312865647129
 20
2159.703063006866
 30
0.0
 10
52.70858459251654
 20
2161.780432228363
 30
0.0
 10
54.24973259946569
 20
2163.57611214492
 30
0.0
 10
56.28150051419028
 20
2164.791326750743
 30
0.0
 10
58.59820262656473
 20
2165.324713549018
 30
0.0
 10
60.73424796481369
 20
2165.139143992037
 30
0.0
 10
62.21452798468425
 20
2164.72299366096
 30
0.0
 10
62.8239986443791
 20
2164.265068541333
 30
0.0
 10
62.91336096432592
 20
2164.19792625909
 30
0.0
  0
SPLINE
  5
18B
330
1F
100
AcDbEntity
  8
0
  6
Continuous
 62
     7
370
    15
100
AcDbSpline
210
0.0
220
0.0
230
1.0
 70
     8
 71
     3
 72
    15
 73
    11
 74
     0
 42
0.000000001
 43
0.00000001
 40
0.0
 40
0.0
 40
0.0
 40
0.0
 40
0.139958323471686
 40
0.2794940248904059
 40
0.4298927337957142
 40
0.5987913698188518
 40
0.7263118365529931
 40
0.8540377959308332
 40
0.9801455398264359
 40
1.0
 40
1.0
 40
1.0
 40
1.0
 10
580.7315138688365
 20
2157.683755586346
 30
0.0
 10
580.6615469285734
 20
2156.910942235784
 30
0.0
 10
580.5218243221694
 20
2155.367649143384
 30
0.0
 10
579.44903594111
 20
2153.282188385732
 30
0.0
 10
577.7939867117707
 20
2151.529934684594
 30
0.0
 10
575.6687334448634
 20
2150.419982225547
 30
0.0
 10
573.334859699419
 20
2150.02693109692
 30
0.0
 10
571.2493936752712
 20
2150.321562642965
 30
0.0
 10
569.8141441623021
 20
2150.792325996007
 30
0.0
 10
569.2302343621429
 20
2151.282299804242
 30
0.0
 10
569.1508082261365
 20
2151.348948328246
 30
0.0
  0
SPLINE
  5
18C
330
1F
100
AcDbEntity
  8
0
  6
Continuous
 62
     7
370
    15
100
AcDbSpline
210
0.0
220
0.0
230
1.0
 70
     8
 71
     3
 72
    11
 73
     7
 74
     0
 42
0.000000001
 43
0.00000001
 40
0.0
 40
0.0
 40
0.0
 40
0.0
 40
0.2867132625455953
 40
0.5565331648563642
 40
0.7892754456564697
 40
1.0
 40
1.0
 40
1.0
 40
1.0
 10
567.5786761155406
 20
2152.626521734943
 30
0.0
 10
567.0464519275594
 20
2153.347587222024
 30
0.0
 10
566.0133625994956
 20
2154.747232477465
 30
0.0
 10
565.5189223353676
 20
2157.319237797169
 30
0.0
 10
565.7596097978065
 20
2159.66761768972
 30
0.0
 10
566.3948942255947
 20
2160.917135548864
 30
0.0
 10
566.6967657914439
 20
2161.510875763794
 30
0.0
  0
SPLINE
  5
18D
330
1F
100
AcDbEntity
  8
0
  6
Continuous
 62
     7
370
    15
100
AcDbSpline
210
0.0
220
0.0
230
1.0
 70
     8
 71
     3
 72
    14
 73
    10
 74
     0
 42
0.000000001
 43
0.00000001
 40
0.0
 40
0.0
 40
0.0
 40
0.0
 40
0.0904973519190158
 40
0.2452658973004766
 40
0.3920908275381312
 40
0.5614472225244939
 40
0.7592836173483156
 40
0.9514412702335773
 40
1.0
 40
1.0
 40
1.0
 40
1.0
 10
571.3845518937388
 20
2164.941356366922
 30
0.0
 10
571.7872192572826
 20
2165.050328181008
 30
0.0
 10
572.878528230849
 20
2165.345663560392
 30
0.0
 10
574.7610744394192
 20
2165.152944156406
 30
0.0
 10
576.7845515168806
 20
2164.435636426797
 30
0.0
 10
578.6458145186313
 20
2163.081756977987
 30
0.0
 10
580.120788290986
 20
2161.032127949301
 30
0.0
 10
580.6940586850413
 20
2159.030930579445
 30
0.0
 10
580.7252265109886
 20
2157.909897081517
 30
0.0
 10
580.7315138688365
 20
2157.683755586346
 30
0.0
  0
LINE
  5
18E
330
1F
100
AcDbEntity
  8
0
  6
Continuous
 62
     7
370
    15
100
AcDbLine
 10
-583.8184329161
 20
2157.6837555863
 30
0.0
 11
-583.8184329161
 21
2170.1837557726
 31
0.0
  0
LINE
  5
18F
330
1F
100
AcDbEntity
  8
0
  6
Continuous
 62
     7
370
    15
100
AcDbLine
 10
-583.8184329161
 20
2145.1837554001
 30
0.0
 11
-583.8184329161
 21
2157.6837555863
 31
0.0
  0
SPLINE
  5
190
330
1F
100
AcDbEntity
  8
0
  6
Continuous
 62
     7
370
    15
100
AcDbSpline
210
0.0
220
0.0
230
1.0
 70
    11
 71
     3
 72
    28
 73
    24
 74
     0
 42
0.000000001
 43
0.00000001
 40
0.0
 40
0.0
 40
0.0
 40
0.0
 40
0.0475551014000669
 40
0.0949664653779242
 40
0.1460694281378816
 40
0.2034572576346642
 40
0.2467853992253445
 40
0.2901854545242694
 40
0.3330337680648255
 40
0.3834830910086404
 40
0.4410924166979467
 40
0.4950486948248327
 40
0.5415905681409905
 40
0.5869408459568475
 40
0.6370247351744652
 40
0.6937086172069646
 40
0.7381340220793389
 40
0.782695496843095
 40
0.8249696142415267
 40
0.873731094874722
 40
0.9306923265189875
 40
0.9860188323343754
 40
1.0
 40
1.0
 40
1.0
 40
1.0
 10
-446.2684374714217
 20
2157.683755586346
 30
0.0
 10
-446.3384056881437
 20
2156.910957425535
 30
0.0
 10
-446.4781306395213
 20
2155.36769692094
 30
0.0
 10
-447.5510688063126
 20
2153.281998829913
 30
0.0
 10
-449.2054283765859
 20
2151.530704231492
 30
0.0
 10
-451.3335034124465
 20
2150.41714203278
 30
0.0
 10
-453.6589587662626
 20
2150.034662786255
 30
0.0
 10
-455.7737048564218
 20
2150.292541207707
 30
0.0
 10
-457.7688809766036
 20
2151.128363196834
 30
0.0
 10
-459.5849186593129
 20
2152.599638572255
 30
0.0
 10
-460.9554242131715
 20
2154.769304830331
 30
0.0
 10
-461.4956744535253
 20
2157.319020022686
 30
0.0
 10
-461.2068572619264
 20
2159.703000677204
 30
0.0
 10
-460.2913205685005
 20
2161.780615468878
 30
0.0
 10
-458.7507716356804
 20
2163.575386758818
 30
0.0
 10
-456.7164159501326
 20
2164.79408692062
 30
0.0
 10
-454.4076538581137
 20
2165.316877138944
 30
0.0
 10
-452.2440444967501
 20
2165.168082339367
 30
0.0
 10
-450.2139288276809
 20
2164.431006048314
 30
0.0
 10
-448.3547417013215
 20
2163.083329145927
 30
0.0
 10
-446.8790853031687
 20
2161.031670465357
 30
0.0
 10
-446.3060337617516
 20
2159.030951828253
 30
0.0
 10
-446.2747485213951
 20
2157.90990084515
 30
0.0
 10
-446.2684374714217
 20
2157.683755586346
 30
0.0
  0
CIRCLE
  5
191
330
1F
100
AcDbEntity
  8
0
  6
Continuous
 62
     7
370
    15
100
AcDbCircle
 10
59.5148623155
 20
2157.6837555863
 30
0.0
 40
6.450000000000021
  0
LINE
  5
192
330
1F
100
AcDbEntity
  8
0
  6
Continuous
 62
     7
370
    15
100
AcDbLine
 10
60.9466461053
 20
2155.1771022738
 30
0.0
 11
62.4015954843
 21
2157.6703929046
 31
0.0
  0
LINE
  5
193
330
1F
100
AcDbEntity
  8
0
  6
Continuous
 62
     7
370
    15
100
AcDbLine
 10
60.9697727075
 20
2160.1770462826
 30
0.0
 11
58.0830601564
 21
2160.1904088989
 31
0.0
  0
LINE
  5
194
330
1F
100
AcDbEntity
  8
0
  6
Continuous
 62
     7
370
    15
100
AcDbLine
 10
58.0830601564
 20
2160.1904088989
 30
0.0
 11
56.6281703821
 21
2157.6971182681
 31
0.0
  0
LINE
  5
195
330
1F
100
AcDbEntity
  8
0
  6
Continuous
 62
     7
370
    15
100
AcDbLine
 10
58.0599335542
 20
2155.1904648901
 30
0.0
 11
60.9466461053
 21
2155.1771022738
 31
0.0
  0
LINE
  5
196
330
1F
100
AcDbEntity
  8
0
  6
Continuous
 62
     7
370
    15
100
AcDbLine
 10
62.4015954843
 20
2157.6703929046
 30
0.0
 11
60.9697727075
 21
2160.1770462826
 31
0.0
  0
LINE
  5
197
330
1F
100
AcDbEntity
  8
0
  6
Continuous
 62
     7
370
    15
100
AcDbLine
 10
56.6281703821
 20
2157.6971182681
 30
0.0
 11
58.0599335542
 21
2155.1904648901
 31
0.0
  0
CIRCLE
  5
198
330
1F
100
AcDbEntity
  8
0
  6
Continuous
 62
     7
370
    15
100
AcDbCircle
 10
59.5148623155
 20
2157.6837555863
 30
0.0
 40
7.450000000000176
  0
CIRCLE
  5
199
330
1F
100
AcDbEntity
  8
0
  6
Continuous
 62
     7
370
    15
100
AcDbCircle
 10
572.8481623155
 20
2157.6837555863
 30
0.0
 40
6.450000000000069
  0
LINE
  5
19A
330
1F
100
AcDbEntity
  8
0
  6
Continuous
 62
     7
370
    15
100
AcDbLine
 10
575.7348564973
 20
2157.6703929046
 30
0.0
 11
574.3031529298
 21
2160.1770462826
 31
0.0
  0
LINE
  5
19B
330
1F
100
AcDbEntity
  8
0
  6
Continuous
 62
     7
370
    15
100
AcDbLine
 10
574.3031529298
 20
2160.1770462826
 30
0.0
 11
571.416380774
 21
2160.1904088989
 31
0.0
  0
LINE
  5
19C
330
1F
100
AcDbEntity
  8
0
  6
Continuous
 62
     7
370
    15
100
AcDbLine
 10
571.416380774
 20
2160.1904088989
 30
0.0
 11
569.9614313951
 21
2157.6971182681
 31
0.0
  0
LINE
  5
19D
330
1F
100
AcDbEntity
  8
0
  6
Continuous
 62
     7
370
    15
100
AcDbLine
 10
574.2799071183
 20
2155.1771022738
 30
0.0
 11
575.7348564973
 21
2157.6703929046
 31
0.0
  0
LINE
  5
19E
330
1F
100
AcDbEntity
  8
0
  6
Continuous
 62
     7
370
    15
100
AcDbLine
 10
571.3932541719
 20
2155.1904648901
 30
0.0
 11
574.2799071183
 21
2155.1771022738
 31
0.0
  0
LINE
  5
19F
330
1F
100
AcDbEntity
  8
0
  6
Continuous
 62
     7
370
    15
100
AcDbLine
 10
569.9614313951
 20
2157.6971182681
 30
0.0
 11
571.3932541719
 21
2155.1904648901
 31
0.0
  0
CIRCLE
  5
1A0
330
1F
100
AcDbEntity
  8
0
  6
Continuous
 62
     7
370
    15
100
AcDbCircle
 10
572.8481623155
 20
2157.6837555863
 30
0.0
 40
7.450000000000182
  0
CIRCLE
  5
1A1
330
1F
100
AcDbEntity
  8
0
  6
Continuous
 62
     7
370
    15
100
AcDbCircle
 10
-453.8184376845
 20
2157.6837555863
 30
0.0
 40
6.450000000000021
  0
LINE
  5
1A2
330
1F
100
AcDbEntity
  8
0
  6
Continuous
 62
     7
370
    15
100
AcDbLine
 10
-456.7051567549
 20
2157.6971182681
 30
0.0
 11
-455.2733696012
 21
2155.1904648901
 31
0.0
  0
LINE
  5
1A3
330
1F
100
AcDbEntity
  8
0
  6
Continuous
 62
     7
370
    15
100
AcDbLine
 10
-455.2733696012
 20
2155.1904648901
 30
0.0
 11
-452.3866505308
 21
2155.1771022738
 31
0.0
  0
LINE
  5
1A4
330
1F
100
AcDbEntity
  8
0
  6
Continuous
 62
     7
370
    15
100
AcDbLine
 10
-452.3866505308
 20
2155.1771022738
 30
0.0
 11
-450.9317186141
 21
2157.6703929046
 31
0.0
  0
LINE
  5
1A5
330
1F
100
AcDbEntity
  8
0
  6
Continuous
 62
     7
370
    15
100
AcDbLine
 10
-450.9317186141
 20
2157.6703929046
 30
0.0
 11
-452.3635057678
 21
2160.1770462826
 31
0.0
  0
LINE
  5
1A6
330
1F
100
AcDbEntity
  8
0
  6
Continuous
 62
     7
370
    15
100
AcDbLine
 10
-452.3635057678
 20
2160.1770462826
 30
0.0
 11
-455.2502248382
 21
2160.1904088989
 31
0.0
  0
LINE
  5
1A7
330
1F
100
AcDbEntity
  8
0
  6
Continuous
 62
     7
370
    15
100
AcDbLine
 10
-455.2502248382
 20
2160.1904088989
 30
0.0
 11
-456.7051567549
 21
2157.6971182681
 31
0.0
  0
CIRCLE
  5
1A8
330
1F
100
AcDbEntity
  8
0
  6
Continuous
 62
     7
370
    15
100
AcDbCircle
 10
-453.8184376845
 20
2157.6837555863
 30
0.0
 40
7.450000000000182
  0
CIRCLE
  5
1A9
330
1F
100
AcDbEntity
  8
0
  6
Continuous
 62
     7
370
    15
100
AcDbCircle
 10
1086.1814623155
 20
2157.6837555863
 30
0.0
 40
6.449999999999971
  0
LINE
  5
1AA
330
1F
100
AcDbEntity
  8
0
  6
Continuous
 62
     7
370
    15
100
AcDbLine
 10
1083.2947520128
 20
2157.6971182681
 30
0.0
 11
1084.7265747896
 21
2155.1904648901
 31
0.0
  0
LINE
  5
1AB
330
1F
100
AcDbEntity
  8
0
  6
Continuous
 62
     7
370
    15
100
AcDbLine
 10
1087.613227736
 20
2155.1771022738
 30
0.0
 11
1089.068177115
 21
2157.6703929046
 31
0.0
  0
LINE
  5
1AC
330
1F
100
AcDbEntity
  8
0
  6
Continuous
 62
     7
370
    15
100
AcDbLine
 10
1089.068177115
 20
2157.6703929046
 30
0.0
 11
1087.6363543382
 21
2160.1770462826
 31
0.0
  0
LINE
  5
1AD
330
1F
100
AcDbEntity
  8
0
  6
Continuous
 62
     7
370
    15
100
AcDbLine
 10
1084.7497013917
 20
2160.1904088989
 30
0.0
 11
1083.2947520128
 21
2157.6971182681
 31
0.0
  0
LINE
  5
1AE
330
1F
100
AcDbEntity
  8
0
  6
Continuous
 62
     7
370
    15
100
AcDbLine
 10
1084.7265747896
 20
2155.1904648901
 30
0.0
 11
1087.613227736
 21
2155.1771022738
 31
0.0
  0
LINE
  5
1AF
330
1F
100
AcDbEntity
  8
0
  6
Continuous
 62
     7
370
    15
100
AcDbLine
 10
1087.6363543382
 20
2160.1770462826
 30
0.0
 11
1084.7497013917
 21
2160.1904088989
 31
0.0
  0
CIRCLE
  5
1B0
330
1F
100
AcDbEntity
  8
0
  6
Continuous
 62
     7
370
    15
100
AcDbCircle
 10
1086.1814623155
 20
2157.6837555863
 30
0.0
 40
7.450000000000085
  0
LINE
  5
1B1
330
1F
100
AcDbEntity
  8
0
  6
Continuous
 62
     7
370
    15
100
AcDbLine
 10
316.181543242
 20
2115.1837551393
 30
0.0
 11
231.1815646997
 21
2115.1837551393
 31
0.0
  0
LINE
  5
1B2
330
1F
100
AcDbEntity
  8
0
  6
Continuous
 62
     7
370
    15
100
AcDbLine
 10
201.1815337053
 20
2115.1837551393
 30
0.0
 11
-468.8184373492
 21
2115.1837551393
 31
0.0
  0
LINE
  5
1B3
330
1F
100
AcDbEntity
  8
0
  6
Continuous
 62
     7
370
    15
100
AcDbLine
 10
-498.8184394726
 20
2115.1837551393
 30
0.0
 11
-583.8184329161
 21
2115.1837551393
 31
0.0
  0
LINE
  5
1B4
330
1F
100
AcDbEntity
  8
0
  6
Continuous
 62
     7
370
    15
100
AcDbLine
 10
-583.8184329161
 20
65.1837841966
 30
0.0
 11
279.5180109849
 21
65.1837841966
 31
0.0
  0
LINE
  5
1B5
330
1F
100
AcDbEntity
  8
0
  6
Continuous
 62
     7
370
    15
100
AcDbLine
 10
314.8450878969
 20
65.1837841966
 30
0.0
 11
316.181543242
 21
65.1837841966
 31
0.0
  0
LINE
  5
1B6
330
1F
100
AcDbEntity
  8
0
  6
Continuous
 62
     7
370
    15
100
AcDbLine
 10
-583.8184329161
 20
2115.1837551393
 30
0.0
 11
-583.8184329161
 21
65.1837841966
 31
0.0
  0
LINE
  5
1B7
330
1F
100
AcDbEntity
  8
0
  6
Continuous
 62
     7
370
    15
100
AcDbLine
 10
316.181543242
 20
65.1837841966
 30
0.0
 11
316.181543242
 21
2115.1837551393
 31
0.0
  0
ARC
  5
1B8
330
1F
100
AcDbEntity
  8
0
  6
Continuous
 62
     7
370
    15
100
AcDbCircle
 10
-483.8184376845
 20
2196.1837555863
 30
0.0
 40
28.99999999999995
100
AcDbArc
 50
301.1473899215
 51
238.8526100785
  0
ARC
  5
1B9
330
1F
100
AcDbEntity
  8
0
  6
Continuous
 62
     7
370
    15
100
AcDbCircle
 10
216.1815623155
 20
2196.1837555863
 30
0.0
 40
28.99999999999999
100
AcDbArc
 50
301.1473899215
 51
238.8526100785
  0
LINE
  5
1BA
330
1F
100
AcDbEntity
  8
0
  6
Continuous
 62
     7
370
    15
100
AcDbLine
 10
217.7915600648
 20
1989.1837493875
 30
0.0
 11
214.5715383401
 21
1989.1837493875
 31
0.0
  0
LINE
  5
1BB
330
1F
100
AcDbEntity
  8
0
  6
Continuous
 62
     7
370
    15
100
AcDbLine
 10
-482.2084373275
 20
1989.1837493875
 30
0.0
 11
-485.4284385631
 21
1989.1837493875
 31
0.0
  0
CIRCLE
  5
1BC
330
1F
100
AcDbEntity
  8
0
  6
Continuous
 62
     7
370
    15
100
AcDbCircle
 10
-483.8184376845
 20
2005.1837555863
 30
0.0
 40
12.33393612946679
  0
CIRCLE
  5
1BD
330
1F
100
AcDbEntity
  8
0
  6
Continuous
 62
     7
370
    15
100
AcDbCircle
 10
-483.8184376845
 20
2005.1837555863
 30
0.0
 40
12.49999999999977
  0
CIRCLE
  5
1BE
330
1F
100
AcDbEntity
  8
0
  6
Continuous
 62
     7
370
    15
100
AcDbCircle
 10
216.1815623155
 20
2060.1837555863
 30
0.0
 40
12.33393612946657
  0
CIRCLE
  5
1BF
330
1F
100
AcDbEntity
  8
0
  6
Continuous
 62
     7
370
    15
100
AcDbCircle
 10
216.1815623155
 20
2060.1837555863
 30
0.0
 40
12.5
  0
CIRCLE
  5
1C0
330
1F
100
AcDbEntity
  8
0
  6
Continuous
 62
     7
370
    15
100
AcDbCircle
 10
-483.8184376845
 20
2060.1837555863
 30
0.0
 40
12.33393612946657
  0
CIRCLE
  5
1C1
330
1F
100
AcDbEntity
  8
0
  6
Continuous
 62
     7
370
    15
100
AcDbCircle
 10
-483.8184376845
 20
2060.1837555863
 30
0.0
 40
12.5
  0
CIRCLE
  5
1C2
330
1F
100
AcDbEntity
  8
0
  6
Continuous
 62
     7
370
    15
100
AcDbCircle
 10
216.1815623155
 20
2005.1837555863
 30
0.0
 40
12.33393612946679
  0
CIRCLE
  5
1C3
330
1F
100
AcDbEntity
  8
0
  6
Continuous
 62
     7
370
    15
100
AcDbCircle
 10
216.1815623155
 20
2005.1837555863
 30
0.0
 40
12.49999999999977
  0
CIRCLE
  5
1C4
330
1F
100
AcDbEntity
  8
0
  6
Continuous
 62
     7
370
    15
100
AcDbCircle
 10
216.1815623155
 20
2136.1837555863
 30
0.0
 40
12.33393612946702
  0
CIRCLE
  5
1C5
330
1F
100
AcDbEntity
  8
0
  6
Continuous
 62
     7
370
    15
100
AcDbCircle
 10
216.1815623155
 20
2136.1837555863
 30
0.0
 40
12.50000000000045
  0
CIRCLE
  5
1C6
330
1F
100
AcDbEntity
  8
0
  6
Continuous
 62
     7
370
    15
100
AcDbCircle
 10
-483.8184376845
 20
2136.1837555863
 30
0.0
 40
12.33393612946702
  0
CIRCLE
  5
1C7
330
1F
100
AcDbEntity
  8
0
  6
Continuous
 62
     7
370
    15
100
AcDbCircle
 10
-483.8184376845
 20
2136.1837555863
 30
0.0
 40
12.50000000000045
  0
CIRCLE
  5
1C8
330
1F
100
AcDbEntity
  8
0
  6
Continuous
 62
     7
370
    15
100
AcDbCircle
 10
-483.8184376845
 20
2196.1837555863
 30
0.0
 40
12.33393612946679
  0
CIRCLE
  5
1C9
330
1F
100
AcDbEntity
  8
0
  6
Continuous
 62
     7
370
    15
100
AcDbCircle
 10
-483.8184376845
 20
2196.1837555863
 30
0.0
 40
12.5
  0
CIRCLE
  5
1CA
330
1F
100
AcDbEntity
  8
0
  6
Continuous
 62
     7
370
    15
100
AcDbCircle
 10
216.1815623155
 20
2196.1837555863
 30
0.0
 40
12.33393612946676
  0
CIRCLE
  5
1CB
330
1F
100
AcDbEntity
  8
0
  6
Continuous
 62
     7
370
    15
100
AcDbCircle
 10
216.1815623155
 20
2196.1837555863
 30
0.0
 40
12.49999999999994
  0
ARC
  5
1CC
330
1F
100
AcDbEntity
  8
0
  6
Continuous
 62
     7
370
    15
100
AcDbCircle
 10
216.1815623155
 20
2196.1837555863
 30
0.0
 40
14.80000000000004
100
AcDbArc
 50
0.0
 51
180.0
  0
LINE
  5
1CD
330
1F
100
AcDbEntity
  8
0
  6
Continuous
 62
     7
370
    15
100
AcDbLine
 10
201.3815668931
 20
2196.1837553777
 30
0.0
 11
201.1815337053
 21
2196.1837553777
 31
0.0
  0
ARC
  5
1CE
330
1F
100
AcDbEntity
  8
0
  6
Continuous
 62
     7
370
    15
100
AcDbCircle
 10
216.1815623155
 20
2196.1837555863
 30
0.0
 40
15.0
100
AcDbArc
 50
0.0
 51
180.0
  0
LINE
  5
1CF
330
1F
100
AcDbEntity
  8
0
  6
Continuous
 62
     7
370
    15
100
AcDbLine
 10
230.9815911165
 20
2196.1837553777
 30
0.0
 11
231.1815646997
 21
2196.1837553777
 31
0.0
  0
LINE
  5
1D0
330
1F
100
AcDbEntity
  8
0
  6
Continuous
 62
     7
370
    15
100
AcDbLine
 10
231.1815646997
 20
2196.1837553777
 30
0.0
 11
231.1815646997
 21
2004.1837499835
 31
0.0
  0
LINE
  5
1D1
330
1F
100
AcDbEntity
  8
0
  6
Continuous
 62
     7
370
    15
100
AcDbLine
 10
231.1815646997
 20
2004.1837499835
 30
0.0
 11
230.9815911165
 21
2004.1837499835
 31
0.0
  0
LINE
  5
1D2
330
1F
100
AcDbEntity
  8
0
  6
Continuous
 62
     7
370
    15
100
AcDbLine
 10
230.9815911165
 20
2004.1837499835
 30
0.0
 11
230.9815911165
 21
2196.1837553777
 31
0.0
  0
ARC
  5
1D3
330
1F
100
AcDbEntity
  8
0
  6
Continuous
 62
     7
370
    15
100
AcDbCircle
 10
216.1815623155
 20
2004.1837555863
 30
0.0
 40
14.80000000000004
100
AcDbArc
 50
180.0
 51
0.0
  0
LINE
  5
1D4
330
1F
100
AcDbEntity
  8
0
  6
Continuous
 62
     7
370
    15
100
AcDbLine
 10
201.3815668931
 20
2196.1837553777
 30
0.0
 11
201.3815668931
 21
2004.1837499835
 31
0.0
  0
LINE
  5
1D5
330
1F
100
AcDbEntity
  8
0
  6
Continuous
 62
     7
370
    15
100
AcDbLine
 10
201.1815337053
 20
2004.1837499835
 30
0.0
 11
201.1815337053
 21
2196.1837553777
 31
0.0
  0
LINE
  5
1D6
330
1F
100
AcDbEntity
  8
0
  6
Continuous
 62
     7
370
    15
100
AcDbLine
 10
201.1815337053
 20
2004.1837499835
 30
0.0
 11
201.3815668931
 21
2004.1837499835
 31
0.0
  0
ARC
  5
1D7
330
1F
100
AcDbEntity
  8
0
  6
Continuous
 62
     7
370
    15
100
AcDbCircle
 10
216.1815623155
 20
2004.1837555863
 30
0.0
 40
15.0
100
AcDbArc
 50
180.0
 51
0.0
  0
LINE
  5
1D8
330
1F
100
AcDbEntity
  8
0
  6
Continuous
 62
     7
370
    15
100
AcDbLine
 10
-498.8184394726
 20
2004.1837499835
 30
0.0
 11
-498.8184394726
 21
2196.1837553777
 31
0.0
  0
LINE
  5
1D9
330
1F
100
AcDbEntity
  8
0
  6
Continuous
 62
     7
370
    15
100
AcDbLine
 10
-498.6184360871
 20
2196.1837553777
 30
0.0
 11
-498.8184394726
 21
2196.1837553777
 31
0.0
  0
LINE
  5
1DA
330
1F
100
AcDbEntity
  8
0
  6
Continuous
 62
     7
370
    15
100
AcDbLine
 10
-498.6184360871
 20
2196.1837553777
 30
0.0
 11
-498.6184360871
 21
2004.1837499835
 31
0.0
  0
LINE
  5
1DB
330
1F
100
AcDbEntity
  8
0
  6
Continuous
 62
     7
370
    15
100
AcDbLine
 10
-498.8184394726
 20
2004.1837499835
 30
0.0
 11
-498.6184360871
 21
2004.1837499835
 31
0.0
  0
LINE
  5
1DC
330
1F
100
AcDbEntity
  8
0
  6
Continuous
 62
     7
370
    15
100
AcDbLine
 10
-469.0184379408
 20
2004.1837499835
 30
0.0
 11
-469.0184379408
 21
2196.1837553777
 31
0.0
  0
ARC
  5
1DD
330
1F
100
AcDbEntity
  8
0
  6
Continuous
 62
     7
370
    15
100
AcDbCircle
 10
-483.8184376845
 20
2004.1837555863
 30
0.0
 40
14.80000000000007
100
AcDbArc
 50
180.0
 51
0.0
  0
ARC
  5
1DE
330
1F
100
AcDbEntity
  8
0
  6
Continuous
 62
     7
370
    15
100
AcDbCircle
 10
-483.8184376845
 20
2196.1837555863
 30
0.0
 40
14.80000000000007
100
AcDbArc
 50
0.0
 51
180.0
  0
LINE
  5
1DF
330
1F
100
AcDbEntity
  8
0
  6
Continuous
 62
     7
370
    15
100
AcDbLine
 10
-468.8184373492
 20
2196.1837553777
 30
0.0
 11
-468.8184373492
 21
2004.1837499835
 31
0.0
  0
LINE
  5
1E0
330
1F
100
AcDbEntity
  8
0
  6
Continuous
 62
     7
370
    15
100
AcDbLine
 10
-468.8184373492
 20
2004.1837499835
 30
0.0
 11
-469.0184379408
 21
2004.1837499835
 31
0.0
  0
LINE
  5
1E1
330
1F
100
AcDbEntity
  8
0
  6
Continuous
 62
     7
370
    15
100
AcDbLine
 10
-469.0184379408
 20
2196.1837553777
 30
0.0
 11
-468.8184373492
 21
2196.1837553777
 31
0.0
  0
ARC
  5
1E2
330
1F
100
AcDbEntity
  8
0
  6
Continuous
 62
     7
370
    15
100
AcDbCircle
 10
-483.8184376845
 20
2196.1837555863
 30
0.0
 40
15.00000000000006
100
AcDbArc
 50
0.0
 51
180.0
  0
ARC
  5
1E3
330
1F
100
AcDbEntity
  8
0
  6
Continuous
 62
     7
370
    15
100
AcDbCircle
 10
-483.8184376845
 20
2004.1837555863
 30
0.0
 40
15.00000000000006
100
AcDbArc
 50
180.0
 51
0.0
  0
LINE
  5
1E4
330
1F
100
AcDbEntity
  8
0
  6
Continuous
 62
     7
370
    15
100
AcDbLine
 10
315.6815794816
 20
57.1836487748
 30
0.0
 11
315.6815794816
 21
58.1838147142
 31
0.0
  0
LINE
  5
1E5
330
1F
100
AcDbEntity
  8
0
  6
Continuous
 62
     7
370
    15
100
AcDbLine
 10
316.181543242
 20
58.1838147142
 30
0.0
 11
315.6815794816
 21
58.1838147142
 31
0.0
  0
LINE
  5
1E6
330
1F
100
AcDbEntity
  8
0
  6
Continuous
 62
     7
370
    15
100
AcDbLine
 10
316.181543242
 20
58.1838147142
 30
0.0
 11
316.181543242
 21
57.1836487748
 31
0.0
  0
LINE
  5
1E7
330
1F
100
AcDbEntity
  8
0
  6
Continuous
 62
     7
370
    15
100
AcDbLine
 10
316.181543242
 20
57.1836487748
 30
0.0
 11
315.6815794816
 21
57.1836487748
 31
0.0
  0
LINE
  5
1E8
330
1F
100
AcDbEntity
  8
0
  6
Continuous
 62
     7
370
    15
100
AcDbLine
 10
278.6815790048
 20
58.1838147142
 30
0.0
 11
278.6815790048
 21
57.1836487748
 31
0.0
  0
ARC
  5
1E9
330
1F
100
AcDbEntity
  8
0
  6
Continuous
 62
     7
370
    15
100
AcDbCircle
 10
297.1815623155
 20
58.1837555863
 30
0.0
 40
18.5
100
AcDbArc
 50
0.0
 51
180.0
  0
LINE
  5
1EA
330
1F
100
AcDbEntity
  8
0
  6
Continuous
 62
     7
370
    15
100
AcDbLine
 10
278.6815790048
 20
57.1836487748
 30
0.0
 11
315.6815794816
 21
57.1836487748
 31
0.0
  0
LINE
  5
1EB
330
1F
100
AcDbEntity
  8
0
  6
Continuous
 62
     7
370
    15
100
AcDbLine
 10
278.1815556398
 20
57.1836487748
 30
0.0
 11
278.1815556398
 21
58.1838147142
 31
0.0
  0
LINE
  5
1EC
330
1F
100
AcDbEntity
  8
0
  6
Continuous
 62
     7
370
    15
100
AcDbLine
 10
278.1815556398
 20
58.1838147142
 30
0.0
 11
278.6815790048
 21
58.1838147142
 31
0.0
  0
LINE
  5
1ED
330
1F
100
AcDbEntity
  8
0
  6
Continuous
 62
     7
370
    15
100
AcDbLine
 10
278.6815790048
 20
57.1836487748
 30
0.0
 11
278.1815556398
 21
57.1836487748
 31
0.0
  0
ARC
  5
1EE
330
1F
100
AcDbEntity
  8
0
  6
Continuous
 62
     7
370
    15
100
AcDbCircle
 10
297.1815623155
 20
58.1837555863
 30
0.0
 40
19.00000000000006
100
AcDbArc
 50
0.0
 51
180.0
  0
SPLINE
  5
1EF
330
1F
100
AcDbEntity
  8
0
  6
Continuous
 62
     7
370
    15
100
AcDbSpline
210
0.0
220
0.0
230
1.0
 70
    24
 71
     3
 72
     9
 73
     5
 74
     0
 42
0.000000001
 43
0.00000001
 40
0.0
 40
0.0
 40
0.0
 40
0.0
 40
0.5
 40
1.0
 40
1.0
 40
1.0
 40
1.0
 10
-517.5275253543576
 20
2155.927319162016
 30
0.0
 10
-517.464915642075
 20
2156.404353100918
 30
0.0
 10
-517.3396962175092
 20
2157.358420978722
 30
0.0
 10
-517.2144767929436
 20
2158.312488856526
 30
0.0
 10
-517.1518670806607
 20
2158.789522795429
 30
0.0
  0
SPLINE
  5
1F0
330
1F
100
AcDbEntity
  8
0
  6
Continuous
 62
     7
370
    15
100
AcDbSpline
210
0.0
220
0.0
230
1.0
 70
     8
 71
     3
 72
    14
 73
    10
 74
     0
 42
0.000000001
 43
0.00000001
 40
0.0
 40
0.0
 40
0.0
 40
0.0
 40
0.1719863126014181
 40
0.3436834916776362
 40
0.5228385750236446
 40
0.7237716094653915
 40
0.9514042072828877
 40
0.9912635261389923
 40
1.0
 40
1.0
 40
1.0
 40
1.0
 10
-517.1518670806607
 20
2158.789522795429
 30
0.0
 10
-517.1499673507418
 20
2158.790309478302
 30
0.0
 10
-517.1461710846206
 20
2158.791881521523
 30
0.0
 10
-517.1169473987536
 20
2158.804001663328
 30
0.0
 10
-517.0730366324403
 20
2158.822208207736
 30
0.0
 10
-517.0132983879372
 20
2158.846988077172
 30
0.0
 10
-516.9627003524131
 20
2158.867954155889
 30
0.0
 10
-516.9330630132409
 20
2158.880257144907
 30
0.0
 10
-516.9278553725836
 20
2158.882414575303
 30
0.0
 10
-516.9269191512784
 20
2158.882802434688
 30
0.0
  0
SPLINE
  5
1F1
330
1F
100
AcDbEntity
  8
0
  6
Continuous
 62
     7
370
    15
100
AcDbSpline
210
0.0
220
0.0
230
1.0
 70
     8
 71
     3
 72
     9
 73
     5
 74
     0
 42
0.000000001
 43
0.00000001
 40
0.0
 40
0.0
 40
0.0
 40
0.0
 40
0.5000001512645639
 40
1.0
 40
1.0
 40
1.0
 40
1.0
 10
-516.9269191512784
 20
2158.882802434688
 30
0.0
 10
-516.9943233018073
 20
2158.365462960556
 30
0.0
 10
-517.1291315620816
 20
2157.330784325312
 30
0.0
 10
-517.2658919977082
 20
2156.296361912569
 30
0.0
 10
-517.3342721948346
 20
2155.779150862669
 30
0.0
  0
SPLINE
  5
1F2
330
1F
100
AcDbEntity
  8
0
  6
Continuous
 62
     7
370
    15
100
AcDbSpline
210
0.0
220
0.0
230
1.0
 70
     8
 71
     3
 72
    14
 73
    10
 74
     0
 42
0.000000001
 43
0.00000001
 40
0.0
 40
0.0
 40
0.0
 40
0.0
 40
0.1719809161532715
 40
0.3436795326388171
 40
0.5228292014610196
 40
0.7237803262375581
 40
0.9513903562099396
 40
0.9912634258847492
 40
0.9999999999999999
 40
0.9999999999999999
 40
0.9999999999999999
 40
0.9999999999999999
 10
-517.5275253543576
 20
2155.927319162016
 30
0.0
 10
-517.5258973946961
 20
2155.926069406128
 30
0.0
 10
-517.5226441476024
 20
2155.923571945775
 30
0.0
 10
-517.4975305682452
 20
2155.904321668746
 30
0.0
 10
-517.4598109005331
 20
2155.87539674453
 30
0.0
 10
-517.4084806560129
 20
2155.836048339067
 30
0.0
 10
-517.3650135412611
 20
2155.802726389744
 30
0.0
 10
-517.3395536857497
 20
2155.783194802514
 30
0.0
 10
-517.3350768187228
 20
2155.779766948288
 30
0.0
 10
-517.3342721948346
 20
2155.779150862669
 30
0.0
  0
CIRCLE
  5
1F3
330
1F
100
AcDbEntity
  8
0
  6
Continuous
 62
     7
370
    15
100
AcDbCircle
 10
-519.8184376845
 20
2157.6837555863
 30
0.0
 40
14.83208158365328
  0
SPLINE
  5
1F4
330
1F
100
AcDbEntity
  8
0
  6
Continuous
 62
     7
370
    15
100
AcDbSpline
210
0.0
220
0.0
230
1.0
 70
     8
 71
     3
 72
     9
 73
     5
 74
     0
 42
0.000000001
 43
0.00000001
 40
0.0
 40
0.0
 40
0.0
 40
0.0
 40
0.5000001512645639
 40
1.0
 40
1.0
 40
1.0
 40
1.0
 10
-522.7099555024823
 20
2156.484708738004
 30
0.0
 10
-522.6425513519534
 20
2157.002048212136
 30
0.0
 10
-522.5077430916793
 20
2158.03672684738
 30
0.0
 10
-522.3709826560525
 20
2159.071149260123
 30
0.0
 10
-522.3026024589261
 20
2159.588360310023
 30
0.0
  0
SPLINE
  5
1F5
330
1F
100
AcDbEntity
  8
0
  6
Continuous
 62
     7
370
    15
100
AcDbSpline
210
0.0
220
0.0
230
1.0
 70
     8
 71
     3
 72
     9
 73
     5
 74
     0
 42
0.000000001
 43
0.00000001
 40
0.0
 40
0.0
 40
0.0
 40
0.0
 40
0.499999654431701
 40
0.9999999999999999
 40
0.9999999999999999
 40
0.9999999999999999
 40
0.9999999999999999
 10
-520.2257903704366
 20
2154.580104014327
 30
0.0
 10
-520.6401179212496
 20
2154.897146216219
 30
0.0
 10
-521.46877359559
 20
2155.531231058243
 30
0.0
 10
-522.2962280095569
 20
2156.16688269831
 30
0.0
 10
-522.7099555024823
 20
2156.484708738004
 30
0.0
  0
SPLINE
  5
1F6
330
1F
100
AcDbEntity
  8
0
  6
Continuous
 62
     7
370
    15
100
AcDbSpline
210
0.0
220
0.0
230
1.0
 70
     8
 71
     3
 72
     9
 73
     5
 74
     0
 42
0.000000001
 43
0.00000001
 40
0.0
 40
0.0
 40
0.0
 40
0.0
 40
0.5000006406973072
 40
1.0
 40
1.0
 40
1.0
 40
1.0
 10
-517.3342721948346
 20
2155.779150862669
 30
0.0
 10
-517.8160034546821
 20
2155.578853559073
 30
0.0
 10
-518.779464739803
 20
2155.1782594652
 30
0.0
 10
-519.7436822387398
 20
2154.779488994291
 30
0.0
 10
-520.2257903704366
 20
2154.580104014327
 30
0.0
  0
SPLINE
  5
1F7
330
1F
100
AcDbEntity
  8
0
  6
Continuous
 62
     7
370
    15
100
AcDbSpline
210
0.0
220
0.0
230
1.0
 70
     8
 71
     3
 72
     9
 73
     5
 74
     0
 42
0.000000001
 43
0.00000001
 40
0.0
 40
0.0
 40
0.0
 40
0.0
 40
0.499999654431701
 40
0.9999999999999999
 40
0.9999999999999999
 40
0.9999999999999999
 40
0.9999999999999999
 10
-519.4110842833242
 20
2160.787407158365
 30
0.0
 10
-518.9967567325111
 20
2160.470364956472
 30
0.0
 10
-518.1681010581707
 20
2159.836280114449
 30
0.0
 10
-517.3406466442038
 20
2159.200628474382
 30
0.0
 10
-516.9269191512784
 20
2158.882802434688
 30
0.0
  0
SPLINE
  5
1F8
330
1F
100
AcDbEntity
  8
0
  6
Continuous
 62
     7
370
    15
100
AcDbSpline
210
0.0
220
0.0
230
1.0
 70
     8
 71
     3
 72
     9
 73
     5
 74
     0
 42
0.000000001
 43
0.00000001
 40
0.0
 40
0.0
 40
0.0
 40
0.0
 40
0.5000006406973072
 40
1.0
 40
1.0
 40
1.0
 40
1.0
 10
-522.3026024589261
 20
2159.588360310023
 30
0.0
 10
-521.8208711990789
 20
2159.788657613619
 30
0.0
 10
-520.857409913958
 20
2160.189251707492
 30
0.0
 10
-519.8931924150212
 20
2160.588022178401
 30
0.0
 10
-519.4110842833242
 20
2160.787407158365
 30
0.0
  0
SPLINE
  5
1F9
330
1F
100
AcDbEntity
  8
0
  6
Continuous
 62
     7
370
    15
100
AcDbSpline
210
0.0
220
0.0
230
1.0
 70
     8
 71
     3
 72
     9
 73
     5
 74
     0
 42
0.000000001
 43
0.00000001
 40
0.0
 40
0.0
 40
0.0
 40
0.0
 40
0.5000000245314621
 40
1.0
 40
1.0
 40
1.0
 40
1.0
 10
-522.4850075731
 20
2156.577988377263
 30
0.0
 10
-522.1031901621429
 20
2156.285248922182
 30
0.0
 10
-521.3395553776948
 20
2155.699770040744
 30
0.0
 10
-520.5759204808483
 20
2155.114291305962
 30
0.0
 10
-520.1941030511579
 20
2154.821551952933
 30
0.0
  0
SPLINE
  5
1FA
330
1F
100
AcDbEntity
  8
0
  6
Continuous
 62
     7
370
    15
100
AcDbSpline
210
0.0
220
0.0
230
1.0
 70
     8
 71
     3
 72
    14
 73
    10
 74
     0
 42
0.000000001
 43
0.00000001
 40
0.0
 40
0.0
 40
0.0
 40
0.0
 40
0.1719827272416473
 40
0.343680870122018
 40
0.522833875927466
 40
0.7237771231985602
 40
0.9513954873161751
 40
0.9912701166290598
 40
1.0
 40
1.0
 40
1.0
 40
1.0
 10
-520.1941030511579
 20
2154.821551952933
 30
0.0
 10
-520.1943675354661
 20
2154.819515480659
 30
0.0
 10
-520.1948960664336
 20
2154.815445905913
 30
0.0
 10
-520.1990271159145
 20
2154.784075856825
 30
0.0
 10
-520.2051977745115
 20
2154.73694337395
 30
0.0
 10
-520.2136344442307
 20
2154.672820610405
 30
0.0
 10
-520.2207393067883
 20
2154.618512832708
 30
0.0
 10
-520.2249261889036
 20
2154.586698108911
 30
0.0
 10
-520.2256587879222
 20
2154.581108048216
 30
0.0
 10
-520.2257903704366
 20
2154.580104014327
 30
0.0
  0
SPLINE
  5
1FB
330
1F
100
AcDbEntity
  8
0
  6
Continuous
 62
     7
370
    15
100
AcDbSpline
210
0.0
220
0.0
230
1.0
 70
     8
 71
     3
 72
    14
 73
    10
 74
     0
 42
0.000000001
 43
0.00000001
 40
0.0
 40
0.0
 40
0.0
 40
0.0
 40
0.0087364738610077
 40
0.0485957927171123
 40
0.2762283905346083
 40
0.4771614249763552
 40
0.6563165083223637
 40
0.8280136873985818
 40
1.0
 40
1.0
 40
1.0
 40
1.0
 10
-522.7099555024823
 20
2156.484708738004
 30
0.0
 10
-522.7090192811772
 20
2156.485096597389
 30
0.0
 10
-522.70381164052
 20
2156.487254027785
 30
0.0
 10
-522.6741743013479
 20
2156.499557016803
 30
0.0
 10
-522.6235762658235
 20
2156.52052309552
 30
0.0
 10
-522.5638380213206
 20
2156.545302964956
 30
0.0
 10
-522.5199272550074
 20
2156.563509509364
 30
0.0
 10
-522.4907035691401
 20
2156.575629651169
 30
0.0
 10
-522.4869073030192
 20
2156.57720169439
 30
0.0
 10
-522.4850075731
 20
2156.577988377263
 30
0.0
  0
SPLINE
  5
1FC
330
1F
100
AcDbEntity
  8
0
  6
Continuous
 62
     7
370
    15
100
AcDbSpline
210
0.0
220
0.0
230
1.0
 70
     8
 71
     3
 72
     9
 73
     5
 74
     0
 42
0.000000001
 43
0.00000001
 40
0.0
 40
0.0
 40
0.0
 40
0.0
 40
0.5000000245314621
 40
1.0
 40
1.0
 40
1.0
 40
1.0
 10
-517.1518670806607
 20
2158.789522795429
 30
0.0
 10
-517.533684491618
 20
2159.08226225051
 30
0.0
 10
-518.297319276066
 20
2159.667741131947
 30
0.0
 10
-519.0609541729127
 20
2160.25321986673
 30
0.0
 10
-519.4427716026029
 20
2160.545959219759
 30
0.0
  0
SPLINE
  5
1FD
330
1F
100
AcDbEntity
  8
0
  6
Continuous
 62
     7
370
    15
100
AcDbSpline
210
0.0
220
0.0
230
1.0
 70
     8
 71
     3
 72
    14
 73
    10
 74
     0
 42
0.000000001
 43
0.00000001
 40
0.0
 40
0.0
 40
0.0
 40
0.0
 40
0.0087298812178025
 40
0.0486045006960119
 40
0.2762255571700458
 40
0.4771662530242377
 40
0.6563192146434033
 40
0.8280173151761583
 40
1.0
 40
1.0
 40
1.0
 40
1.0
 10
-519.4110842833242
 20
2160.787407158365
 30
0.0
 10
-519.4112158670943
 20
2160.786403124628
 30
0.0
 10
-519.4119484731037
 20
2160.780813064783
 30
0.0
 10
-519.4161347730137
 20
2160.748997948589
 30
0.0
 10
-519.423253680108
 20
2160.694691845322
 30
0.0
 10
-519.4316739058024
 20
2160.630567238525
 30
0.0
 10
-519.437848263656
 20
2160.583435399662
 30
0.0
 10
-519.441978408754
 20
2160.552065246162
 30
0.0
 10
-519.4425070587374
 20
2160.547995685158
 30
0.0
 10
-519.4427716026029
 20
2160.545959219759
 30
0.0
  0
SPLINE
  5
1FE
330
1F
100
AcDbEntity
  8
0
  6
Continuous
 62
     7
370
    15
100
AcDbSpline
210
0.0
220
0.0
230
1.0
 70
     8
 71
     3
 72
    14
 73
    10
 74
     0
 42
0.000000001
 43
0.00000001
 40
0.0
 40
0.0
 40
0.0
 40
0.0
 40
0.0087365741152506
 40
0.0486096437900602
 40
0.2762196737624417
 40
0.4771707985389801
 40
0.6563204673611827
 40
0.8280190838467284
 40
0.9999999999999999
 40
0.9999999999999999
 40
0.9999999999999999
 40
0.9999999999999999
 10
-522.3026024589261
 20
2159.588360310023
 30
0.0
 10
-522.3017978350382
 20
2159.587744224404
 30
0.0
 10
-522.2973209680113
 20
2159.584316370178
 30
0.0
 10
-522.2718611124997
 20
2159.564784782948
 30
0.0
 10
-522.2283939977481
 20
2159.531462833625
 30
0.0
 10
-522.1770637532279
 20
2159.492114428162
 30
0.0
 10
-522.1393440855157
 20
2159.463189503947
 30
0.0
 10
-522.1142305061586
 20
2159.443939226917
 30
0.0
 10
-522.1109772590648
 20
2159.441441766564
 30
0.0
 10
-522.1093492994031
 20
2159.440192010676
 30
0.0
  0
SPLINE
  5
1FF
330
1F
100
AcDbEntity
  8
0
  6
Continuous
 62
     7
370
    15
100
AcDbSpline
210
0.0
220
0.0
230
1.0
 70
    24
 71
     3
 72
     9
 73
     5
 74
     0
 42
0.000000001
 43
0.00000001
 40
0.0
 40
0.0
 40
0.0
 40
0.0
 40
0.5
 40
1.0
 40
1.0
 40
1.0
 40
1.0
 10
-522.1093492994031
 20
2159.440192010676
 30
0.0
 10
-522.171959011686
 20
2158.963158071773
 30
0.0
 10
-522.2971784362516
 20
2158.009090193969
 30
0.0
 10
-522.4223978608173
 20
2157.055022316165
 30
0.0
 10
-522.4850075731
 20
2156.577988377263
 30
0.0
  0
SPLINE
  5
200
330
1F
100
AcDbEntity
  8
0
  6
Continuous
 62
     7
370
    15
100
AcDbSpline
210
0.0
220
0.0
230
1.0
 70
    24
 71
     3
 72
     9
 73
     5
 74
     0
 42
0.000000001
 43
0.00000001
 40
0.0
 40
0.0
 40
0.0
 40
0.0
 40
0.5
 40
1.0
 40
1.0
 40
1.0
 40
1.0
 10
-519.4427716026029
 20
2160.545959219759
 30
0.0
 10
-519.8872012187363
 20
2160.361664684911
 30
0.0
 10
-520.776060451003
 20
2159.993075615217
 30
0.0
 10
-521.6649196832699
 20
2159.624486545523
 30
0.0
 10
-522.1093492994031
 20
2159.440192010676
 30
0.0
  0
SPLINE
  5
201
330
1F
100
AcDbEntity
  8
0
  6
Continuous
 62
     7
370
    15
100
AcDbSpline
210
0.0
220
0.0
230
1.0
 70
    24
 71
     3
 72
     9
 73
     5
 74
     0
 42
0.000000001
 43
0.00000001
 40
0.0
 40
0.0
 40
0.0
 40
0.0
 40
0.5
 40
1.0
 40
1.0
 40
1.0
 40
1.0
 10
-520.1941030511579
 20
2154.821551952933
 30
0.0
 10
-519.7496734350246
 20
2155.00584648778
 30
0.0
 10
-518.8608142027578
 20
2155.374435557474
 30
0.0
 10
-517.9719549704911
 20
2155.743024627169
 30
0.0
 10
-517.5275253543576
 20
2155.927319162016
 30
0.0
  0
CIRCLE
  5
202
330
1F
100
AcDbEntity
  8
0
  6
Continuous
 62
     7
370
    15
100
AcDbCircle
 10
-519.8184376845
 20
2157.6837555863
 30
0.0
 40
15.00000000000001
  0
SPLINE
  5
203
330
1F
100
AcDbEntity
  8
0
  6
Continuous
 62
     7
370
    15
100
AcDbSpline
210
0.0
220
0.0
230
1.0
 70
     8
 71
     3
 72
     9
 73
     5
 74
     0
 42
0.000000001
 43
0.00000001
 40
0.0
 40
0.0
 40
0.0
 40
0.0
 40
0.4999973139148449
 40
1.0
 40
1.0
 40
1.0
 40
1.0
 10
1142.472508322267
 20
2155.927319162016
 30
0.0
 10
1142.535083433439
 20
2156.404354382258
 30
0.0
 10
1142.660234328119
 20
2157.358429948199
 30
0.0
 10
1142.785502414146
 20
2158.312490137894
 30
0.0
 10
1142.848136793641
 20
2158.789522795429
 30
0.0
  0
SPLINE
  5
204
330
1F
100
AcDbEntity
  8
0
  6
Continuous
 62
     7
370
    15
100
AcDbSpline
210
0.0
220
0.0
230
1.0
 70
     8
 71
     3
 72
    14
 73
    10
 74
     0
 42
0.000000001
 43
0.00000001
 40
0.0
 40
0.0
 40
0.0
 40
0.0
 40
0.1719710275770433
 40
0.3436727606430532
 40
0.522851435636028
 40
0.7237607898311984
 40
0.9514647308953473
 40
0.9911256090369936
 40
1.0
 40
1.0
 40
1.0
 40
1.0
 10
1142.848136793641
 20
2158.789522795429
 30
0.0
 10
1142.850026929895
 20
2158.790309302538
 30
0.0
 10
1142.853804242581
 20
2158.791881085141
 30
0.0
 10
1142.883042492514
 20
2158.804005832733
 30
0.0
 10
1142.926970839696
 20
2158.82219313899
 30
0.0
 10
1142.986683987613
 20
2158.847045026423
 30
0.0
 10
1143.037351845404
 20
2158.867809493645
 30
0.0
 10
1143.066913600792
 20
2158.880298408181
 30
0.0
 10
1143.072130790335
 20
2158.882415362021
 30
0.0
 10
1143.073084723023
 20
2158.882802434688
 30
0.0
  0
SPLINE
  5
205
330
1F
100
AcDbEntity
  8
0
  6
Continuous
 62
     7
370
    15
100
AcDbSpline
210
0.0
220
0.0
230
1.0
 70
     8
 71
     3
 72
     9
 73
     5
 74
     0
 42
0.000000001
 43
0.00000001
 40
0.0
 40
0.0
 40
0.0
 40
0.0
 40
0.4999986045185357
 40
1.0
 40
1.0
 40
1.0
 40
1.0
 10
1143.073084723024
 20
2158.882802434688
 30
0.0
 10
1143.005701576424
 20
2158.365462160598
 30
0.0
 10
1142.870934907096
 20
2157.330778724658
 30
0.0
 10
1142.734142816711
 20
2156.296361112339
 30
0.0
 10
1142.665746580628
 20
2155.779150862669
 30
0.0
  0
SPLINE
  5
206
330
1F
100
AcDbEntity
  8
0
  6
Continuous
 62
     7
370
    15
100
AcDbSpline
210
0.0
220
0.0
230
1.0
 70
     8
 71
     3
 72
    14
 73
    10
 74
     0
 42
0.000000001
 43
0.00000001
 40
0.0
 40
0.0
 40
0.0
 40
0.0
 40
0.1719979277084476
 40
0.343688232966912
 40
0.5228464706558046
 40
0.7237157010495872
 40
0.9513198528146136
 40
0.9913306194290769
 40
1.0
 40
1.0
 40
1.0
 40
1.0
 10
1142.472508322267
 20
2155.927319162016
 30
0.0
 10
1142.474146953533
 20
2155.926069645205
 30
0.0
 10
1142.477421285334
 20
2155.923572846373
 30
0.0
 10
1142.502505470486
 20
2155.90432134465
 30
0.0
 10
1142.540224662829
 20
2155.875397230503
 30
0.0
 10
1142.59154800065
 20
2155.836081930829
 30
0.0
 10
1142.634893499957
 20
2155.802590692907
 30
0.0
 10
1142.660492872122
 20
2155.78323067845
 30
0.0
 10
1142.66495239103
 20
2155.779767597925
 30
0.0
 10
1142.665746580628
 20
2155.779150862669
 30
0.0
  0
SPLINE
  5
207
330
1F
100
AcDbEntity
  8
0
  6
Continuous
 62
     7
370
    15
100
AcDbSpline
210
0.0
220
0.0
230
1.0
 70
     8
 71
     3
 72
     9
 73
     5
 74
     0
 42
0.000000001
 43
0.00000001
 40
0.0
 40
0.0
 40
0.0
 40
0.0
 40
0.5000000245306583
 40
1.0
 40
1.0
 40
1.0
 40
1.0
 10
1137.514951597718
 20
2156.577988377263
 30
0.0
 10
1137.896778942783
 20
2156.285248922181
 30
0.0
 10
1138.660433595447
 20
2155.699770040742
 30
0.0
 10
1139.424088360508
 20
2155.114291305962
 30
0.0
 10
1139.805915724305
 20
2154.821551952933
 30
0.0
  0
SPLINE
  5
208
330
1F
100
AcDbEntity
  8
0
  6
Continuous
 62
     7
370
    15
100
AcDbSpline
210
0.0
220
0.0
230
1.0
 70
     8
 71
     3
 72
    14
 73
    10
 74
     0
 42
0.000000001
 43
0.00000001
 40
0.0
 40
0.0
 40
0.0
 40
0.0
 40
0.1719784754634264
 40
0.34367698072126
 40
0.5228336355587447
 40
0.7237816436554092
 40
0.9513722362378342
 40
0.9912834591225741
 40
1.0
 40
1.0
 40
1.0
 40
1.0
 10
1139.805915724305
 20
2154.821551952933
 30
0.0
 10
1139.805665736214
 20
2154.819515322665
 30
0.0
 10
1139.805166166996
 20
2154.815445377637
 30
0.0
 10
1139.800995894616
 20
2154.784076629103
 30
0.0
 10
1139.794849927726
 20
2154.736938406927
 30
0.0
 10
1139.786186023132
 20
2154.672846061928
 30
0.0
 10
1139.779696022829
 20
2154.618455794883
 30
0.0
 10
1139.77497789859
 20
2154.586710901969
 30
0.0
 10
1139.774323376552
 20
2154.581108285049
 30
0.0
 10
1139.774206053285
 20
2154.580104014327
 30
0.0
  0
SPLINE
  5
209
330
1F
100
AcDbEntity
  8
0
  6
Continuous
 62
     7
370
    15
100
AcDbSpline
210
0.0
220
0.0
230
1.0
 70
     8
 71
     3
 72
     9
 73
     5
 74
     0
 42
0.000000001
 43
0.00000001
 40
0.0
 40
0.0
 40
0.0
 40
0.0
 40
0.4999836055237342
 40
1.0
 40
1.0
 40
1.0
 40
1.0
 10
1139.774206053285
 20
2154.580104014327
 30
0.0
 10
1139.35989732
 20
2154.897151318738
 30
0.0
 10
1138.531252683042
 20
2155.531266719539
 30
0.0
 10
1137.703762384085
 20
2156.166887784733
 30
0.0
 10
1137.290003668336
 20
2156.484708738004
 30
0.0
  0
SPLINE
  5
20A
330
1F
100
AcDbEntity
  8
0
  6
Continuous
 62
     7
370
    15
100
AcDbSpline
210
0.0
220
0.0
230
1.0
 70
     8
 71
     3
 72
    14
 73
    10
 74
     0
 42
0.000000001
 43
0.00000001
 40
0.0
 40
0.0
 40
0.0
 40
0.0
 40
0.0088743598652102
 40
0.0488508029929175
 40
0.2762417463840317
 40
0.4771503965491259
 40
0.656328443661051
 40
0.828029575046842
 40
1.0
 40
1.0
 40
1.0
 40
1.0
 10
1137.290003668336
 20
2156.484708738004
 30
0.0
 10
1137.290957463476
 20
2156.485096141518
 30
0.0
 10
1137.296207831861
 20
2156.487228686625
 30
0.0
 10
1137.325835529532
 20
2156.499560848923
 30
0.0
 10
1137.376411423808
 20
2156.520534921005
 30
0.0
 10
1137.436122839466
 20
2156.545305512127
 30
0.0
 10
1137.480044620139
 20
2156.56350836795
 30
0.0
 10
1137.509284463333
 20
2156.57562934268
 30
0.0
 10
1137.513061566372
 20
2156.577201621734
 30
0.0
 10
1137.514951597718
 20
2156.577988377263
 30
0.0
  0
CIRCLE
  5
20B
330
1F
100
AcDbEntity
  8
0
  6
Continuous
 62
     7
370
    15
100
AcDbCircle
 10
1140.1815623155
 20
2157.6837555863
 30
0.0
 40
14.83208158365307
  0
SPLINE
  5
20C
330
1F
100
AcDbEntity
  8
0
  6
Continuous
 62
     7
370
    15
100
AcDbSpline
210
0.0
220
0.0
230
1.0
 70
     8
 71
     3
 72
     9
 73
     5
 74
     0
 42
0.000000001
 43
0.00000001
 40
0.0
 40
0.0
 40
0.0
 40
0.0
 40
0.5000035588551905
 40
1.0
 40
1.0
 40
1.0
 40
1.0
 10
1137.290003668336
 20
2156.484708738004
 30
0.0
 10
1137.357446080165
 20
2157.00204644974
 30
0.0
 10
1137.492329943759
 20
2158.036714508744
 30
0.0
 10
1137.629004846011
 20
2159.071147497195
 30
0.0
 10
1137.697341810731
 20
2159.588360310023
 30
0.0
  0
SPLINE
  5
20D
330
1F
100
AcDbEntity
  8
0
  6
Continuous
 62
     7
370
    15
100
AcDbSpline
210
0.0
220
0.0
230
1.0
 70
     8
 71
     3
 72
     9
 73
     5
 74
     0
 42
0.000000001
 43
0.00000001
 40
0.0
 40
0.0
 40
0.0
 40
0.0
 40
0.5000061349031862
 40
1.0
 40
1.0
 40
1.0
 40
1.0
 10
1142.665746580628
 20
2155.779150862669
 30
0.0
 10
1142.184004931428
 20
2155.578854653728
 30
0.0
 10
1141.220533454634
 20
2155.178267150979
 30
0.0
 10
1140.256311243461
 20
2154.779490095572
 30
0.0
 10
1139.774206053285
 20
2154.580104014327
 30
0.0
  0
SPLINE
  5
20E
330
1F
100
AcDbEntity
  8
0
  6
Continuous
 62
     7
370
    15
100
AcDbSpline
210
0.0
220
0.0
230
1.0
 70
     8
 71
     3
 72
     9
 73
     5
 74
     0
 42
0.000000001
 43
0.00000001
 40
0.0
 40
0.0
 40
0.0
 40
0.0
 40
0.5000138195353059
 40
1.0
 40
1.0
 40
1.0
 40
1.0
 10
1140.588882338075
 20
2160.787407158365
 30
0.0
 10
1141.003238178417
 20
2160.470369460606
 30
0.0
 10
1141.831926954912
 20
2159.83631158986
 30
0.0
 10
1142.659373090268
 20
2159.200632963224
 30
0.0
 10
1143.073084723023
 20
2158.882802434688
 30
0.0
  0
SPLINE
  5
20F
330
1F
100
AcDbEntity
  8
0
  6
Continuous
 62
     7
370
    15
100
AcDbSpline
210
0.0
220
0.0
230
1.0
 70
     8
 71
     3
 72
     9
 73
     5
 74
     0
 42
0.000000001
 43
0.00000001
 40
0.0
 40
0.0
 40
0.0
 40
0.0
 40
0.5000061349031862
 40
1.0
 40
1.0
 40
1.0
 40
1.0
 10
1137.697341810731
 20
2159.588360310023
 30
0.0
 10
1138.179083459932
 20
2159.788656518963
 30
0.0
 10
1139.142554936725
 20
2160.189244021713
 30
0.0
 10
1140.106777147898
 20
2160.58802107712
 30
0.0
 10
1140.588882338075
 20
2160.787407158365
 30
0.0
  0
SPLINE
  5
210
330
1F
100
AcDbEntity
  8
0
  6
Continuous
 62
     7
370
    15
100
AcDbSpline
210
0.0
220
0.0
230
1.0
 70
     8
 71
     3
 72
     9
 73
     5
 74
     0
 42
0.000000001
 43
0.00000001
 40
0.0
 40
0.0
 40
0.0
 40
0.0
 40
0.5000000245306583
 40
1.0
 40
1.0
 40
1.0
 40
1.0
 10
1142.848136793641
 20
2158.789522795429
 30
0.0
 10
1142.466309448577
 20
2159.08226225051
 30
0.0
 10
1141.702654795913
 20
2159.667741131949
 30
0.0
 10
1140.939000030852
 20
2160.25321986673
 30
0.0
 10
1140.557172667054
 20
2160.545959219759
 30
0.0
  0
SPLINE
  5
211
330
1F
100
AcDbEntity
  8
0
  6
Continuous
 62
     7
370
    15
100
AcDbSpline
210
0.0
220
0.0
230
1.0
 70
     8
 71
     3
 72
    14
 73
    10
 74
     0
 42
0.000000001
 43
0.00000001
 40
0.0
 40
0.0
 40
0.0
 40
0.0
 40
0.0087167675794798
 40
0.0485835855436809
 40
0.2762240264673426
 40
0.4771772608718725
 40
0.6563062610262528
 40
0.8280092318633027
 40
1.0
 40
1.0
 40
1.0
 40
1.0
 10
1140.588882338075
 20
2160.787407158365
 30
0.0
 10
1140.588764142728
 20
2160.786403004648
 30
0.0
 10
1140.588105371722
 20
2160.780806275407
 30
0.0
 10
1140.583822653432
 20
2160.749003193724
 30
0.0
 10
1140.5767627763
 20
2160.694689391094
 30
0.0
 10
1140.568227341596
 20
2160.630574706211
 30
0.0
 10
1140.562234546969
 20
2160.583430692785
 30
0.0
 10
1140.558065324289
 20
2160.552065774158
 30
0.0
 10
1140.557470385526
 20
2160.54799587389
 30
0.0
 10
1140.557172667054
 20
2160.545959219759
 30
0.0
  0
SPLINE
  5
212
330
1F
100
AcDbEntity
  8
0
  6
Continuous
 62
     7
370
    15
100
AcDbSpline
210
0.0
220
0.0
230
1.0
 70
     8
 71
     3
 72
    14
 73
    10
 74
     0
 42
0.000000001
 43
0.00000001
 40
0.0
 40
0.0
 40
0.0
 40
0.0
 40
0.0089394730914228
 40
0.0486691949235638
 40
0.2762175789215802
 40
0.4772816376406896
 40
0.6563959778225292
 40
0.828044215373233
 40
1.0
 40
1.0
 40
1.0
 40
1.0
 10
1137.697341810731
 20
2159.588360310023
 30
0.0
 10
1137.698177446165
 20
2159.587745822755
 30
0.0
 10
1137.702726898172
 20
2159.584400368236
 30
0.0
 10
1137.727956235396
 20
2159.564556105689
 30
0.0
 10
1137.771632144278
 20
2159.531517174127
 30
0.0
 10
1137.822962645963
 20
2159.492114559818
 30
0.0
 10
1137.860703001079
 20
2159.463192771998
 30
0.0
 10
1137.885786101014
 20
2159.443937601917
 30
0.0
 10
1137.88906057564
 20
2159.441441285876
 30
0.0
 10
1137.890699278382
 20
2159.440192010676
 30
0.0
  0
SPLINE
  5
213
330
1F
100
AcDbEntity
  8
0
  6
Continuous
 62
     7
370
    15
100
AcDbSpline
210
0.0
220
0.0
230
1.0
 70
    24
 71
     3
 72
     9
 73
     5
 74
     0
 42
0.000000001
 43
0.00000001
 40
0.0
 40
0.0
 40
0.0
 40
0.0
 40
0.5
 40
1.0
 40
1.0
 40
1.0
 40
1.0
 10
1137.890699278382
 20
2159.440192010676
 30
0.0
 10
1137.828074664938
 20
2158.963158071773
 30
0.0
 10
1137.70282543805
 20
2158.009090193969
 30
0.0
 10
1137.577576211162
 20
2157.055022316165
 30
0.0
 10
1137.514951597718
 20
2156.577988377263
 30
0.0
  0
SPLINE
  5
214
330
1F
100
AcDbEntity
  8
0
  6
Continuous
 62
     7
370
    15
100
AcDbSpline
210
0.0
220
0.0
230
1.0
 70
    24
 71
     3
 72
     9
 73
     5
 74
     0
 42
0.000000001
 43
0.00000001
 40
0.0
 40
0.0
 40
0.0
 40
0.0
 40
0.5
 40
1.0
 40
1.0
 40
1.0
 40
1.0
 10
1140.557172667054
 20
2160.545959219759
 30
0.0
 10
1140.112760435609
 20
2160.361664684911
 30
0.0
 10
1139.223935972718
 20
2159.993075615217
 30
0.0
 10
1138.335111509828
 20
2159.624486545523
 30
0.0
 10
1137.890699278382
 20
2159.440192010676
 30
0.0
  0
SPLINE
  5
215
330
1F
100
AcDbEntity
  8
0
  6
Continuous
 62
     7
370
    15
100
AcDbSpline
210
0.0
220
0.0
230
1.0
 70
     8
 71
     3
 72
     9
 73
     5
 74
     0
 42
0.000000001
 43
0.00000001
 40
0.0
 40
0.0
 40
0.0
 40
0.0
 40
0.4999809317372454
 40
1.0
 40
1.0
 40
1.0
 40
1.0
 10
1139.805915724305
 20
2154.821551952933
 30
0.0
 10
1140.250326496302
 20
2155.005850001688
 30
0.0
 10
1141.139181938155
 20
2155.374460156711
 30
0.0
 10
1142.028054894721
 20
2155.743028141614
 30
0.0
 10
1142.472508322267
 20
2155.927319162016
 30
0.0
  0
CIRCLE
  5
216
330
1F
100
AcDbEntity
  8
0
  6
Continuous
 62
     7
370
    15
100
AcDbCircle
 10
1140.1815623155
 20
2157.6837555863
 30
0.0
 40
14.99999999999984
  0
LINE
  5
217
330
1F
100
AcDbEntity
  8
0
  6
Continuous
 62
     7
370
    15
100
AcDbLine
 10
-518.0275412688
 20
2156.2256654384
 30
0.0
 11
-520.1857360491
 21
2155.403749634
 31
0.0
  0
LINE
  5
218
330
1F
100
AcDbEntity
  8
0
  6
Continuous
 62
     7
370
    15
100
AcDbLine
 10
-521.9766321072
 20
2156.8618397237
 30
0.0
 11
-520.1857360491
 21
2155.403749634
 31
0.0
  0
LINE
  5
219
330
1F
100
AcDbEntity
  8
0
  6
Continuous
 62
     7
370
    15
100
AcDbLine
 10
-521.609333385
 20
2159.1418457343
 30
0.0
 11
-521.9766321072
 21
2156.8618397237
 31
0.0
  0
LINE
  5
21A
330
1F
100
AcDbEntity
  8
0
  6
Continuous
 62
     7
370
    15
100
AcDbLine
 10
-517.6602499971
 20
2158.505671449
 30
0.0
 11
-519.4511386046
 21
2159.9637615387
 31
0.0
  0
LINE
  5
21B
330
1F
100
AcDbEntity
  8
0
  6
Continuous
 62
     7
370
    15
100
AcDbLine
 10
-521.609333385
 20
2159.1418457343
 30
0.0
 11
-519.4511386046
 21
2159.9637615387
 31
0.0
  0
LINE
  5
21C
330
1F
100
AcDbEntity
  8
0
  6
Continuous
 62
     7
370
    15
100
AcDbLine
 10
-517.6602499971
 20
2158.505671449
 30
0.0
 11
-518.0275412688
 21
2156.2256654384
 31
0.0
  0
LINE
  5
21D
330
1F
100
AcDbEntity
  8
0
  6
Continuous
 62
     7
370
    15
100
AcDbLine
 10
1138.0233792177
 20
2156.8618397237
 30
0.0
 11
1139.8142603746
 21
2155.403749634
 31
0.0
  0
LINE
  5
21E
330
1F
100
AcDbEntity
  8
0
  6
Continuous
 62
     7
370
    15
100
AcDbLine
 10
1142.3397091737
 20
2158.505671449
 30
0.0
 11
1141.9724253526
 21
2156.2256654384
 31
0.0
  0
LINE
  5
21F
330
1F
100
AcDbEntity
  8
0
  6
Continuous
 62
     7
370
    15
100
AcDbLine
 10
1138.3906630388
 20
2159.1418457343
 30
0.0
 11
1140.5488280168
 21
2159.9637615387
 31
0.0
  0
LINE
  5
220
330
1F
100
AcDbEntity
  8
0
  6
Continuous
 62
     7
370
    15
100
AcDbLine
 10
1141.9724253526
 20
2156.2256654384
 30
0.0
 11
1139.8142603746
 21
2155.403749634
 31
0.0
  0
LINE
  5
221
330
1F
100
AcDbEntity
  8
0
  6
Continuous
 62
     7
370
    15
100
AcDbLine
 10
1142.3397091737
 20
2158.505671449
 30
0.0
 11
1140.5488280168
 21
2159.9637615387
 31
0.0
  0
LINE
  5
222
330
1F
100
AcDbEntity
  8
0
  6
Continuous
 62
     7
370
    15
100
AcDbLine
 10
1138.3906630388
 20
2159.1418457343
 30
0.0
 11
1138.0233792177
 21
2156.8618397237
 31
0.0
  0
CIRCLE
  5
223
330
1F
100
AcDbEntity
  8
0
  6
Continuous
 62
     7
370
    15
100
AcDbCircle
 10
1140.1815623155
 20
2157.6837555863
 30
0.0
 40
19.99999999999999
  0
CIRCLE
  5
224
330
1F
100
AcDbEntity
  8
0
  6
Continuous
 62
     7
370
    15
100
AcDbCircle
 10
-519.8184376845
 20
2157.6837555863
 30
0.0
 40
20.00000000000014
  0
SPLINE
  5
225
330
1F
100
AcDbEntity
  8
0
  6
Continuous
 62
     7
370
    15
100
AcDbSpline
210
0.0
220
0.0
230
1.0
 70
     8
 71
     3
 72
    10
 73
     6
 74
     0
 42
0.000000001
 43
0.00000001
 40
0.0
 40
0.0
 40
0.0
 40
0.0
 40
0.1126986440606311
 40
0.6209508771659007
 40
1.0
 40
1.0
 40
1.0
 40
1.0
 10
571.3712004533094
 20
2156.304660335605
 30
0.0
 10
571.4420350714109
 20
2156.283052497013
 30
0.0
 10
571.8323220940314
 20
2156.163996882465
 30
0.0
 10
572.4980862138551
 20
2155.960955292097
 30
0.0
 10
573.0628125937642
 20
2155.788702689904
 30
0.0
 10
573.3040598740855
 20
2155.71511754622
 30
0.0
  0
SPLINE
  5
226
330
1F
100
AcDbEntity
  8
0
  6
Continuous
 62
     7
370
    15
100
AcDbSpline
210
0.0
220
0.0
230
1.0
 70
     8
 71
     3
 72
     9
 73
     5
 74
     0
 42
0.000000001
 43
0.00000001
 40
0.0
 40
0.0
 40
0.0
 40
0.0
 40
0.5346548749203313
 40
1.0
 40
1.0
 40
1.0
 40
1.0
 10
573.3040598740857
 20
2155.71511754622
 30
0.0
 10
573.5679032937297
 20
2155.96149792914
 30
0.0
 10
574.0613869072159
 20
2156.422319282273
 30
0.0
 10
574.5524363144845
 20
2156.880841648908
 30
0.0
 10
574.7809437623301
 20
2157.094212796961
 30
0.0
  0
SPLINE
  5
227
330
1F
100
AcDbEntity
  8
0
  6
Continuous
 62
     7
370
    15
100
AcDbSpline
210
0.0
220
0.0
230
1.0
 70
     8
 71
     3
 72
     9
 73
     5
 74
     0
 42
0.000000001
 43
0.00000001
 40
0.0
 40
0.0
 40
0.0
 40
0.0
 40
0.5346507622478325
 40
1.0
 40
1.0
 40
1.0
 40
1.0
 10
574.7809437623301
 20
2157.094212796961
 30
0.0
 10
574.6995463258302
 20
2157.445918632439
 30
0.0
 10
574.5473022026615
 20
2158.103742132026
 30
0.0
 10
574.3956559207728
 20
2158.758267811196
 30
0.0
 10
574.325087439088
 20
2159.062850837086
 30
0.0
  0
SPLINE
  5
228
330
1F
100
AcDbEntity
  8
0
  6
Continuous
 62
     7
370
    15
100
AcDbSpline
210
0.0
220
0.0
230
1.0
 70
     8
 71
     3
 72
    10
 73
     6
 74
     0
 42
0.000000001
 43
0.00000001
 40
0.0
 40
0.0
 40
0.0
 40
0.0
 40
0.3790701740289253
 40
0.8872950970115155
 40
1.0
 40
1.0
 40
1.0
 40
1.0
 10
574.325087439088
 20
2159.062850837086
 30
0.0
 10
574.0838393039778
 20
2159.136433159048
 30
0.0
 10
573.5191462679326
 20
2159.308668375574
 30
0.0
 10
572.8534345345532
 20
2159.511742960243
 30
0.0
 10
572.4631819334131
 20
2159.630786116539
 30
0.0
 10
572.3923472276014
 20
2159.652393626471
 30
0.0
  0
SPLINE
  5
229
330
1F
100
AcDbEntity
  8
0
  6
Continuous
 62
     7
370
    15
100
AcDbSpline
210
0.0
220
0.0
230
1.0
 70
     8
 71
     3
 72
     9
 73
     5
 74
     0
 42
0.000000001
 43
0.00000001
 40
0.0
 40
0.0
 40
0.0
 40
0.0
 40
0.5346745037301583
 40
1.0
 40
1.0
 40
1.0
 40
1.0
 10
572.3923472276011
 20
2159.652393626471
 30
0.0
 10
572.1284589818447
 20
2159.406018410324
 30
0.0
 10
571.6349096468465
 20
2158.945223638123
 30
0.0
 10
571.1438477506255
 20
2158.486673463365
 30
0.0
 10
570.915344130067
 20
2158.273298375731
 30
0.0
  0
SPLINE
  5
22A
330
1F
100
AcDbEntity
  8
0
  6
Continuous
 62
     7
370
    15
100
AcDbSpline
210
0.0
220
0.0
230
1.0
 70
     8
 71
     3
 72
     9
 73
     5
 74
     0
 42
0.000000001
 43
0.00000001
 40
0.0
 40
0.0
 40
0.0
 40
0.0
 40
0.534663758477589
 40
1.0
 40
1.0
 40
1.0
 40
1.0
 10
570.915344130067
 20
2158.273298375731
 30
0.0
 10
570.9968029997183
 20
2157.921597423271
 30
0.0
 10
571.1491583227788
 20
2157.263799046473
 30
0.0
 10
571.3006881384201
 20
2156.609247085163
 30
0.0
 10
571.3712004533091
 20
2156.304660335605
 30
0.0
  0
CIRCLE
  5
22B
330
1F
100
AcDbEntity
  8
0
  6
Continuous
 62
     7
370
    15
100
AcDbCircle
 10
572.8481623155
 20
2157.6837555863
 30
0.0
 40
1.699999999999787
  0
SPLINE
  5
22C
330
1F
100
AcDbEntity
  8
0
  6
Continuous
 62
     7
370
    15
100
AcDbSpline
210
0.0
220
0.0
230
1.0
 70
     8
 71
     3
 72
    10
 73
     6
 74
     0
 42
0.000000001
 43
0.00000001
 40
0.0
 40
0.0
 40
0.0
 40
0.0
 40
0.1127048126217576
 40
0.6209848649168119
 40
1.0
 40
1.0
 40
1.0
 40
1.0
 10
1084.704521070985
 20
2156.304660335605
 30
0.0
 10
1084.775355644168
 20
2156.283052404594
 30
0.0
 10
1085.165642419299
 20
2156.163996280837
 30
0.0
 10
1085.831376289726
 20
2155.96097853759
 30
0.0
 10
1086.396054522984
 20
2155.788705382632
 30
0.0
 10
1086.637261282472
 20
2155.71511754622
 30
0.0
  0
SPLINE
  5
22D
330
1F
100
AcDbEntity
  8
0
  6
Continuous
 62
     7
370
    15
100
AcDbSpline
210
0.0
220
0.0
230
1.0
 70
     8
 71
     3
 72
     9
 73
     5
 74
     0
 42
0.000000001
 43
0.00000001
 40
0.0
 40
0.0
 40
0.0
 40
0.0
 40
0.5346745037301583
 40
1.0
 40
1.0
 40
1.0
 40
1.0
 10
1086.637261282472
 20
2155.71511754622
 30
0.0
 10
1086.901149528228
 20
2155.961492762368
 30
0.0
 10
1087.394698863226
 20
2156.422287534569
 30
0.0
 10
1087.885760759448
 20
2156.880837709327
 30
0.0
 10
1088.114264380006
 20
2157.094212796961
 30
0.0
  0
SPLINE
  5
22E
330
1F
100
AcDbEntity
  8
0
  6
Continuous
 62
     7
370
    15
100
AcDbSpline
210
0.0
220
0.0
230
1.0
 70
     8
 71
     3
 72
     9
 73
     5
 74
     0
 42
0.000000001
 43
0.00000001
 40
0.0
 40
0.0
 40
0.0
 40
0.0
 40
0.534663758477589
 40
1.0
 40
1.0
 40
1.0
 40
1.0
 10
1088.114264380006
 20
2157.094212796961
 30
0.0
 10
1088.032805510354
 20
2157.44591374942
 30
0.0
 10
1087.880450187294
 20
2158.103712126219
 30
0.0
 10
1087.728920371653
 20
2158.758264087529
 30
0.0
 10
1087.658408056764
 20
2159.062850837086
 30
0.0
  0
SPLINE
  5
22F
330
1F
100
AcDbEntity
  8
0
  6
Continuous
 62
     7
370
    15
100
AcDbSpline
210
0.0
220
0.0
230
1.0
 70
     8
 71
     3
 72
    10
 73
     6
 74
     0
 42
0.000000001
 43
0.00000001
 40
0.0
 40
0.0
 40
0.0
 40
0.0
 40
0.3790701740289253
 40
0.8872950970115155
 40
1.0
 40
1.0
 40
1.0
 40
1.0
 10
1087.658408056764
 20
2159.062850837086
 30
0.0
 10
1087.417159921654
 20
2159.136433159048
 30
0.0
 10
1086.852466885608
 20
2159.308668375574
 30
0.0
 10
1086.18675515223
 20
2159.511742960243
 30
0.0
 10
1085.796502551089
 20
2159.630786116539
 30
0.0
 10
1085.725667845277
 20
2159.652393626471
 30
0.0
  0
SPLINE
  5
230
330
1F
100
AcDbEntity
  8
0
  6
Continuous
 62
     7
370
    15
100
AcDbSpline
210
0.0
220
0.0
230
1.0
 70
     8
 71
     3
 72
     9
 73
     5
 74
     0
 42
0.000000001
 43
0.00000001
 40
0.0
 40
0.0
 40
0.0
 40
0.0
 40
0.5346745037301583
 40
1.0
 40
1.0
 40
1.0
 40
1.0
 10
1085.725667845277
 20
2159.652393626471
 30
0.0
 10
1085.461779599521
 20
2159.406018410324
 30
0.0
 10
1084.968230264523
 20
2158.945223638123
 30
0.0
 10
1084.477168368301
 20
2158.486673463365
 30
0.0
 10
1084.248664747743
 20
2158.273298375731
 30
0.0
  0
SPLINE
  5
231
330
1F
100
AcDbEntity
  8
0
  6
Continuous
 62
     7
370
    15
100
AcDbSpline
210
0.0
220
0.0
230
1.0
 70
     8
 71
     3
 72
     9
 73
     5
 74
     0
 42
0.000000001
 43
0.00000001
 40
0.0
 40
0.0
 40
0.0
 40
0.0
 40
0.534663758477589
 40
1.0
 40
1.0
 40
1.0
 40
1.0
 10
1084.248664747743
 20
2158.273298375731
 30
0.0
 10
1084.330123617394
 20
2157.921597423271
 30
0.0
 10
1084.482478940454
 20
2157.263799046473
 30
0.0
 10
1084.634008756095
 20
2156.609247085163
 30
0.0
 10
1084.704521070985
 20
2156.304660335605
 30
0.0
  0
CIRCLE
  5
232
330
1F
100
AcDbEntity
  8
0
  6
Continuous
 62
     7
370
    15
100
AcDbCircle
 10
1086.1814623155
 20
2157.6837555863
 30
0.0
 40
1.699999999999754
  0
SPLINE
  5
233
330
1F
100
AcDbEntity
  8
0
  6
Continuous
 62
     7
370
    15
100
AcDbSpline
210
0.0
220
0.0
230
1.0
 70
     8
 71
     3
 72
    10
 73
     6
 74
     0
 42
0.000000001
 43
0.00000001
 40
0.0
 40
0.0
 40
0.0
 40
0.0
 40
0.1127256828747885
 40
0.620950566097153
 40
1.0
 40
1.0
 40
1.0
 40
1.0
 10
58.0378798356333
 20
2156.304660335605
 30
0.0
 10
58.10873455208082
 20
2156.283053227594
 30
0.0
 10
58.4990384754342
 20
2156.164030254222
 30
0.0
 10
59.16477851241225
 20
2155.960939462401
 30
0.0
 10
59.72949055242533
 20
2155.788699565111
 30
0.0
 10
59.97073925640967
 20
2155.71511754622
 30
0.0
  0
SPLINE
  5
234
330
1F
100
AcDbEntity
  8
0
  6
Continuous
 62
     7
370
    15
100
AcDbSpline
210
0.0
220
0.0
230
1.0
 70
     8
 71
     3
 72
     9
 73
     5
 74
     0
 42
0.000000001
 43
0.00000001
 40
0.0
 40
0.0
 40
0.0
 40
0.0
 40
0.534643635777145
 40
0.9999999999999999
 40
0.9999999999999999
 40
0.9999999999999999
 40
0.9999999999999999
 10
59.97073925640967
 20
2155.71511754622
 30
0.0
 10
60.23457974196783
 20
2155.961500887184
 30
0.0
 10
60.72806824141425
 20
2156.422337460325
 30
0.0
 10
61.21915322623733
 20
2156.880843904928
 30
0.0
 10
61.44768274929907
 20
2157.094212796961
 30
0.0
  0
SPLINE
  5
235
330
1F
100
AcDbEntity
  8
0
  6
Continuous
 62
     7
370
    15
100
AcDbSpline
210
0.0
220
0.0
230
1.0
 70
     8
 71
     3
 72
     9
 73
     5
 74
     0
 42
0.000000001
 43
0.00000001
 40
0.0
 40
0.0
 40
0.0
 40
0.0
 40
0.5346572604754727
 40
1.0
 40
1.0
 40
1.0
 40
1.0
 10
61.44768274929907
 20
2157.094212796961
 30
0.0
 10
61.3662545965164
 20
2157.445916190952
 30
0.0
 10
61.21395487330644
 20
2158.103727128893
 30
0.0
 10
61.06236682413685
 20
2158.758265949282
 30
0.0
 10
60.991826426057
 20
2159.062850837086
 30
0.0
  0
SPLINE
  5
236
330
1F
100
AcDbEntity
  8
0
  6
Continuous
 62
     7
370
    15
100
AcDbSpline
210
0.0
220
0.0
230
1.0
 70
     8
 71
     3
 72
    10
 73
     6
 74
     0
 42
0.000000001
 43
0.00000001
 40
0.0
 40
0.0
 40
0.0
 40
0.0
 40
0.3790596481682289
 40
0.8872982265537214
 40
1.0
 40
1.0
 40
1.0
 40
1.0
 10
60.99182642605688
 20
2159.062850837086
 30
0.0
 10
60.75057871838946
 20
2159.136434570015
 30
0.0
 10
60.18586901054318
 20
2159.308678479505
 30
0.0
 10
59.52013108368753
 20
2159.51173656675
 30
0.0
 10
59.12986127187608
 20
2159.630785952195
 30
0.0
 10
59.05902660992529
 20
2159.652393626471
 30
0.0
  0
SPLINE
  5
237
330
1F
100
AcDbEntity
  8
0
  6
Continuous
 62
     7
370
    15
100
AcDbSpline
210
0.0
220
0.0
230
1.0
 70
     8
 71
     3
 72
     9
 73
     5
 74
     0
 42
0.000000001
 43
0.00000001
 40
0.0
 40
0.0
 40
0.0
 40
0.0
 40
0.5346534502435336
 40
1.0
 40
1.0
 40
1.0
 40
1.0
 10
59.05902660992529
 20
2159.652393626471
 30
0.0
 10
58.79516371153032
 20
2159.406012868574
 30
0.0
 10
58.30164235059138
 20
2158.945189586158
 30
0.0
 10
57.81055112147576
 20
2158.486669237821
 30
0.0
 10
57.58202351239122
 20
2158.273298375731
 30
0.0
  0
SPLINE
  5
238
330
1F
100
AcDbEntity
  8
0
  6
Continuous
 62
     7
370
    15
100
AcDbSpline
210
0.0
220
0.0
230
1.0
 70
     8
 71
     3
 72
     9
 73
     5
 74
     0
 42
0.000000001
 43
0.00000001
 40
0.0
 40
0.0
 40
0.0
 40
0.0
 40
0.534663758477589
 40
1.0
 40
1.0
 40
1.0
 40
1.0
 10
57.58202351239111
 20
2158.273298375731
 30
0.0
 10
57.66348238204272
 20
2157.921597423271
 30
0.0
 10
57.81583770510307
 20
2157.263799046473
 30
0.0
 10
57.96736752074422
 20
2156.609247085163
 30
0.0
 10
58.0378798356333
 20
2156.304660335605
 30
0.0
  0
CIRCLE
  5
239
330
1F
100
AcDbEntity
  8
0
  6
Continuous
 62
     7
370
    15
100
AcDbCircle
 10
59.5148623155
 20
2157.6837555863
 30
0.0
 40
1.699999999999766
  0
SPLINE
  5
23A
330
1F
100
AcDbEntity
  8
0
  6
Continuous
 62
     7
370
    15
100
AcDbSpline
210
0.0
220
0.0
230
1.0
 70
     8
 71
     3
 72
    10
 73
     6
 74
     0
 42
0.000000001
 43
0.00000001
 40
0.0
 40
0.0
 40
0.0
 40
0.0
 40
0.1127085871852367
 40
0.6209481495001509
 40
1.0
 40
1.0
 40
1.0
 40
1.0
 10
-455.2954041112161
 20
2156.304660335605
 30
0.0
 10
-455.2245638202307
 20
2156.283052785504
 30
0.0
 10
-454.8342816891528
 20
2156.164009786338
 30
0.0
 10
-454.1685418755966
 20
2155.960947409916
 30
0.0
 10
-453.6038334455508
 20
2155.788701279353
 30
0.0
 10
-453.3625893939233
 20
2155.71511754622
 30
0.0
  0
SPLINE
  5
23B
330
1F
100
AcDbEntity
  8
0
  6
Continuous
 62
     7
370
    15
100
AcDbSpline
210
0.0
220
0.0
230
1.0
 70
     8
 71
     3
 72
     9
 73
     5
 74
     0
 42
0.000000001
 43
0.00000001
 40
0.0
 40
0.0
 40
0.0
 40
0.0
 40
0.5346597892489167
 40
1.0
 40
1.0
 40
1.0
 40
1.0
 10
-453.3625893939233
 20
2155.71511754622
 30
0.0
 10
-453.0987253833935
 20
2155.961496635648
 30
0.0
 10
-452.6052077936372
 20
2156.422311333858
 30
0.0
 10
-452.1141376509207
 20
2156.880840662524
 30
0.0
 10
-451.8856229672155
 20
2157.094212796961
 30
0.0
  0
SPLINE
  5
23C
330
1F
100
AcDbEntity
  8
0
  6
Continuous
 62
     7
370
    15
100
AcDbSpline
210
0.0
220
0.0
230
1.0
 70
     8
 71
     3
 72
     9
 73
     5
 74
     0
 42
0.000000001
 43
0.00000001
 40
0.0
 40
0.0
 40
0.0
 40
0.0
 40
0.5346597586109935
 40
1.0
 40
1.0
 40
1.0
 40
1.0
 10
-451.8856229672155
 20
2157.094212796961
 30
0.0
 10
-451.9670615006994
 20
2157.445915252328
 30
0.0
 10
-452.1193799278342
 20
2158.103721361171
 30
0.0
 10
-452.270942905287
 20
2158.758265233525
 30
0.0
 10
-452.3414712578005
 20
2159.062850837086
 30
0.0
  0
SPLINE
  5
23D
330
1F
100
AcDbEntity
  8
0
  6
Continuous
 62
     7
370
    15
100
AcDbSpline
210
0.0
220
0.0
230
1.0
 70
     8
 71
     3
 72
    10
 73
     6
 74
     0
 42
0.000000001
 43
0.00000001
 40
0.0
 40
0.0
 40
0.0
 40
0.0
 40
0.37905186386074
 40
0.8872914193940665
 40
1.0
 40
1.0
 40
1.0
 40
1.0
 10
-452.3414712578005
 20
2159.062850837086
 30
0.0
 10
-452.5827153191819
 20
2159.136434569636
 30
0.0
 10
-453.1474237563422
 20
2159.308680694039
 30
0.0
 10
-453.8131635703745
 20
2159.511743072325
 30
0.0
 10
-454.2034456889824
 20
2159.630786076295
 30
0.0
 10
-454.2742859750933
 20
2159.652393626471
 30
0.0
  0
SPLINE
  5
23E
330
1F
100
AcDbEntity
  8
0
  6
Continuous
 62
     7
370
    15
100
AcDbSpline
210
0.0
220
0.0
230
1.0
 70
     8
 71
     3
 72
     9
 73
     5
 74
     0
 42
0.000000001
 43
0.00000001
 40
0.0
 40
0.0
 40
0.0
 40
0.0
 40
0.5346597892489167
 40
1.0
 40
1.0
 40
1.0
 40
1.0
 10
-454.2742859750933
 20
2159.652393626471
 30
0.0
 10
-454.5381499856231
 20
2159.406014537044
 30
0.0
 10
-455.0316675753795
 20
2158.945199838834
 30
0.0
 10
-455.5227377180959
 20
2158.486670510168
 30
0.0
 10
-455.7512524018011
 20
2158.273298375731
 30
0.0
  0
SPLINE
  5
23F
330
1F
100
AcDbEntity
  8
0
  6
Continuous
 62
     7
370
    15
100
AcDbSpline
210
0.0
220
0.0
230
1.0
 70
     8
 71
     3
 72
     9
 73
     5
 74
     0
 42
0.000000001
 43
0.00000001
 40
0.0
 40
0.0
 40
0.0
 40
0.0
 40
0.5346597586109935
 40
1.0
 40
1.0
 40
1.0
 40
1.0
 10
-455.7512524018011
 20
2158.273298375731
 30
0.0
 10
-455.6698138683172
 20
2157.921595920364
 30
0.0
 10
-455.5174954411824
 20
2157.26378981152
 30
0.0
 10
-455.3659324637296
 20
2156.609245939166
 30
0.0
 10
-455.2954041112161
 20
2156.304660335605
 30
0.0
  0
CIRCLE
  5
240
330
1F
100
AcDbEntity
  8
0
  6
Continuous
 62
     7
370
    15
100
AcDbCircle
 10
-453.8184376845
 20
2157.6837555863
 30
0.0
 40
1.69999999999977
  0
ARC
  5
241
330
1F
100
AcDbEntity
  8
0
  6
Continuous
 62
     7
370
    15
100
AcDbCircle
 10
-453.8184376845
 20
2157.6837555863
 30
0.0
 40
14.99999999999997
100
AcDbArc
 50
56.4426902381
 51
123.5573097619
  0
ARC
  5
242
330
1F
100
AcDbEntity
  8
0
  6
Continuous
 62
     7
370
    15
100
AcDbCircle
 10
-453.8184376845
 20
2157.6837555863
 30
0.0
 40
14.99999999999959
100
AcDbArc
 50
236.4426902381
 51
303.5573097619
  0
ARC
  5
243
330
1F
100
AcDbEntity
  8
0
  6
Continuous
 62
     7
370
    15
100
AcDbCircle
 10
-453.8184376845
 20
2157.6837555863
 30
0.0
 40
30.00000000000004
100
AcDbArc
 50
240.0
 51
335.3756816478
  0
ARC
  5
244
330
1F
100
AcDbEntity
  8
0
  6
Continuous
 62
     7
370
    15
100
AcDbCircle
 10
-453.8184376845
 20
2157.6837555863
 30
0.0
 40
30.00000000000017
100
AcDbArc
 50
24.6243183522
 51
94.3987209583
  0
ARC
  5
245
330
1F
100
AcDbEntity
  8
0
  6
Continuous
 62
     7
370
    15
100
AcDbCircle
 10
572.8481623155
 20
2157.6837555863
 30
0.0
 40
15.00000000000006
100
AcDbArc
 50
56.4426902381
 51
123.5573097619
  0
ARC
  5
246
330
1F
100
AcDbEntity
  8
0
  6
Continuous
 62
     7
370
    15
100
AcDbCircle
 10
572.8481623155
 20
2157.6837555863
 30
0.0
 40
14.99999999999969
100
AcDbArc
 50
236.4426902381
 51
303.5573097619
  0
ARC
  5
247
330
1F
100
AcDbEntity
  8
0
  6
Continuous
 62
     7
370
    15
100
AcDbCircle
 10
572.8481623155
 20
2157.6837555863
 30
0.0
 40
30.00000000000013
100
AcDbArc
 50
204.6243183522
 51
335.3756816478
  0
ARC
  5
248
330
1F
100
AcDbEntity
  8
0
  6
Continuous
 62
     7
370
    15
100
AcDbCircle
 10
572.8481623155
 20
2157.6837555863
 30
0.0
 40
30.00000000000032
100
AcDbArc
 50
24.6243183522
 51
155.3756816478
  0
ARC
  5
249
330
1F
100
AcDbEntity
  8
0
  6
Continuous
 62
     7
370
    15
100
AcDbCircle
 10
1086.1814623155
 20
2157.6837555863
 30
0.0
 40
15.00000000000013
100
AcDbArc
 50
56.4426902381
 51
123.5573097619
  0
ARC
  5
24A
330
1F
100
AcDbEntity
  8
0
  6
Continuous
 62
     7
370
    15
100
AcDbCircle
 10
1086.1814623155
 20
2157.6837555863
 30
0.0
 40
14.99999999999937
100
AcDbArc
 50
236.4426902381
 51
303.5573097619
  0
ARC
  5
24B
330
1F
100
AcDbEntity
  8
0
  6
Continuous
 62
     7
370
    15
100
AcDbCircle
 10
1086.1814623155
 20
2157.6837555863
 30
0.0
 40
30.00000000000005
100
AcDbArc
 50
204.6243183522
 51
335.3756816478
  0
ARC
  5
24C
330
1F
100
AcDbEntity
  8
0
  6
Continuous
 62
     7
370
    15
100
AcDbCircle
 10
1086.1814623155
 20
2157.6837555863
 30
0.0
 40
30.00000000000043
100
AcDbArc
 50
24.6243183522
 51
155.3756816478
  0
ARC
  5
24D
330
1F
100
AcDbEntity
  8
0
  6
Continuous
 62
     7
370
    15
100
AcDbCircle
 10
59.5148623155
 20
2157.6837555863
 30
0.0
 40
14.99999999999997
100
AcDbArc
 50
56.4426902381
 51
123.5573097619
  0
ARC
  5
24E
330
1F
100
AcDbEntity
  8
0
  6
Continuous
 62
     7
370
    15
100
AcDbCircle
 10
59.5148623155
 20
2157.6837555863
 30
0.0
 40
14.99999999999959
100
AcDbArc
 50
236.4426902381
 51
303.5573097619
  0
ARC
  5
24F
330
1F
100
AcDbEntity
  8
0
  6
Continuous
 62
     7
370
    15
100
AcDbCircle
 10
59.5148623155
 20
2157.6837555863
 30
0.0
 40
29.99999999999999
100
AcDbArc
 50
204.6243183522
 51
335.3756816478
  0
ARC
  5
250
330
1F
100
AcDbEntity
  8
0
  6
Continuous
 62
     7
370
    15
100
AcDbCircle
 10
59.5148623155
 20
2157.6837555863
 30
0.0
 40
30.00000000000018
100
AcDbArc
 50
24.6243183522
 51
155.3756816478
  0
LINE
  5
251
330
1F
100
AcDbEntity
  8
0
  6
Continuous
 62
     7
370
    15
100
AcDbLine
 10
-461.3184375169
 20
-155.9917847046
 30
0.0
 11
-468.9130802119
 21
-155.9917847046
 31
0.0
  0
LINE
  5
252
330
1F
100
AcDbEntity
  8
0
  6
Continuous
 62
     7
370
    15
100
AcDbLine
 10
-498.7237947473
 20
-155.9917847046
 30
0.0
 11
-503.8965577671
 21
-155.9917847046
 31
0.0
  0
LINE
  5
253
330
1F
100
AcDbEntity
  8
0
  6
Continuous
 62
     7
370
    15
100
AcDbLine
 10
-535.7403206119
 20
-155.9917847046
 30
0.0
 11
-583.8184329161
 21
-155.9917847046
 31
0.0
  0
LINE
  5
254
330
1F
100
AcDbEntity
  8
0
  6
Continuous
 62
     7
370
    15
100
AcDbLine
 10
52.0148900857
 20
-155.9917847046
 30
0.0
 11
-446.3362996878
 21
-155.9917847046
 31
0.0
  0
LINE
  5
255
330
1F
100
AcDbEntity
  8
0
  6
Continuous
 62
     7
370
    15
100
AcDbLine
 10
565.3481510988
 20
-155.9917847046
 30
0.0
 11
231.0869125238
 21
-155.9917847046
 31
0.0
  0
LINE
  5
256
330
1F
100
AcDbEntity
  8
0
  6
Continuous
 62
     7
370
    15
100
AcDbLine
 10
201.2761858812
 20
-155.9917847046
 30
0.0
 11
66.9969943872
 21
-155.9917847046
 31
0.0
  0
LINE
  5
257
330
1F
100
AcDbEntity
  8
0
  6
Continuous
 62
     7
370
    15
100
AcDbLine
 10
1078.6814717164
 20
-155.9917847046
 30
0.0
 11
580.3302554002
 21
-155.9917847046
 31
0.0
  0
LINE
  5
258
330
1F
100
AcDbEntity
  8
0
  6
Continuous
 62
     7
370
    15
100
AcDbLine
 10
1216.1815194001
 20
-155.9917847046
 30
0.0
 11
1156.103494536
 21
-155.9917847046
 31
0.0
  0
LINE
  5
259
330
1F
100
AcDbEntity
  8
0
  6
Continuous
 62
     7
370
    15
100
AcDbLine
 10
1124.2597130647
 20
-155.9917847046
 30
0.0
 11
1093.6635760179
 21
-155.9917847046
 31
0.0
  0
LINE
  5
25A
330
1F
100
AcDbEntity
  8
0
  6
Continuous
 62
     7
370
    15
100
AcDbLine
 10
1093.7315253129
 20
-180.9917841458
 30
0.0
 11
1124.2984560838
 21
-180.9917841458
 31
0.0
  0
LINE
  5
25B
330
1F
100
AcDbEntity
  8
0
  6
Continuous
 62
     7
370
    15
100
AcDbLine
 10
1156.068923842
 20
-180.9917841458
 30
0.0
 11
1216.1815194001
 21
-180.9917841458
 31
0.0
  0
LINE
  5
25C
330
1F
100
AcDbEntity
  8
0
  6
Continuous
 62
     7
370
    15
100
AcDbLine
 10
580.7315138688
 20
-180.9917841458
 30
0.0
 11
1078.6634711137
 21
-180.9917841458
 31
0.0
  0
LINE
  5
25D
330
1F
100
AcDbEntity
  8
0
  6
Continuous
 62
     7
370
    15
100
AcDbLine
 10
66.9648674836
 20
-180.9917841458
 30
0.0
 11
201.1815337053
 21
-180.9917841458
 31
0.0
  0
LINE
  5
25E
330
1F
100
AcDbEntity
  8
0
  6
Continuous
 62
     7
370
    15
100
AcDbLine
 10
231.1815646997
 20
-180.9917841458
 30
0.0
 11
565.3982190004
 21
-180.9917841458
 31
0.0
  0
LINE
  5
25F
330
1F
100
AcDbEntity
  8
0
  6
Continuous
 62
     7
370
    15
100
AcDbLine
 10
-446.2684374714
 20
-180.9917841458
 30
0.0
 11
51.6635207048
 21
-180.9917841458
 31
0.0
  0
LINE
  5
260
330
1F
100
AcDbEntity
  8
0
  6
Continuous
 62
     7
370
    15
100
AcDbLine
 10
-583.8184329161
 20
-180.9917841458
 30
0.0
 11
-535.7015403399
 21
-180.9917841458
 31
0.0
  0
LINE
  5
261
330
1F
100
AcDbEntity
  8
0
  6
Continuous
 62
     7
370
    15
100
AcDbLine
 10
-503.9310204277
 20
-180.9917841458
 30
0.0
 11
-498.8184394726
 21
-180.9917841458
 31
0.0
  0
LINE
  5
262
330
1F
100
AcDbEntity
  8
0
  6
Continuous
 62
     7
370
    15
100
AcDbLine
 10
-468.8184373492
 20
-180.9917841458
 30
0.0
 11
-461.3364790978
 21
-180.9917841458
 31
0.0
  0
LINE
  5
263
330
1F
100
AcDbEntity
  8
0
  6
Continuous
 62
     7
370
    15
100
AcDbLine
 10
52.064838778
 20
-180.7380918765
 30
0.0
 11
52.064838778
 21
-180.9917841458
 31
0.0
  0
LINE
  5
264
330
1F
100
AcDbEntity
  8
0
  6
Continuous
 62
     7
370
    15
100
AcDbLine
 10
52.064838778
 20
-180.9917841458
 30
0.0
 11
53.0648855081
 21
-181.9917861724
 31
0.0
  0
LINE
  5
265
330
1F
100
AcDbEntity
  8
0
  6
Continuous
 62
     7
370
    15
100
AcDbLine
 10
65.9648803582
 20
-181.9917861724
 30
0.0
 11
66.9648674836
 21
-180.9917841458
 31
0.0
  0
LINE
  5
266
330
1F
100
AcDbEntity
  8
0
  6
Continuous
 62
     7
370
    15
100
AcDbLine
 10
580.2981881013
 20
-180.9917841458
 30
0.0
 11
580.2981881013
 21
-180.7380918765
 31
0.0
  0
LINE
  5
267
330
1F
100
AcDbEntity
  8
0
  6
Continuous
 62
     7
370
    15
100
AcDbLine
 10
565.3982190004
 20
-180.9917841458
 30
0.0
 11
566.3981465211
 21
-181.9917861724
 31
0.0
  0
LINE
  5
268
330
1F
100
AcDbEntity
  8
0
  6
Continuous
 62
     7
370
    15
100
AcDbLine
 10
579.2981413713
 20
-181.9917861724
 30
0.0
 11
580.2981881013
 21
-180.9917841458
 31
0.0
  0
LINE
  5
269
330
1F
100
AcDbEntity
  8
0
  6
Continuous
 62
     7
370
    15
100
AcDbLine
 10
-461.2684376018
 20
-180.9917841458
 30
0.0
 11
-460.2684379036
 21
-181.9917861724
 31
0.0
  0
LINE
  5
26A
330
1F
100
AcDbEntity
  8
0
  6
Continuous
 62
     7
370
    15
100
AcDbLine
 10
-447.3684374655
 20
-181.9917861724
 30
0.0
 11
-446.3684377672
 21
-180.9917841458
 31
0.0
  0
LINE
  5
26B
330
1F
100
AcDbEntity
  8
0
  6
Continuous
 62
     7
370
    15
100
AcDbLine
 10
1078.7314204088
 20
-180.9917841458
 30
0.0
 11
1079.7314671388
 21
-181.9917861724
 31
0.0
  0
LINE
  5
26C
330
1F
100
AcDbEntity
  8
0
  6
Continuous
 62
     7
370
    15
100
AcDbLine
 10
1092.631461989
 20
-181.9917861724
 30
0.0
 11
1093.631508719
 21
-180.9917841458
 31
0.0
  0
LINE
  5
26D
330
1F
100
AcDbEntity
  8
0
  6
Continuous
 62
     7
370
    15
100
AcDbLine
 10
-498.8184394726
 20
-156.1617836708
 30
0.0
 11
-498.8184394726
 21
-157.2917843589
 31
0.0
  0
LINE
  5
26E
330
1F
100
AcDbEntity
  8
0
  6
Continuous
 62
     7
370
    15
100
AcDbLine
 10
-468.8184373492
 20
-157.2917843589
 30
0.0
 11
-468.8184373492
 21
-156.1617836708
 31
0.0
  0
ARC
  5
26F
330
1F
100
AcDbEntity
  8
0
  6
Continuous
 62
     7
370
    15
100
AcDbCircle
 10
-469.0184376845
 20
-156.161783476
 30
0.0
 40
0.1999999999999948
100
AcDbArc
 50
0.0
 51
80.7694259592
  0
ARC
  5
270
330
1F
100
AcDbEntity
  8
0
  6
Continuous
 62
     7
370
    15
100
AcDbCircle
 10
-498.6184376845
 20
-156.161783476
 30
0.0
 40
0.2000000000001023
100
AcDbArc
 50
99.2305740409
 51
180.0
  0
ARC
  5
271
330
1F
100
AcDbEntity
  8
0
  6
Continuous
 62
     7
370
    15
100
AcDbCircle
 10
-498.6184376845
 20
-157.2917843246
 30
0.0
 40
0.1999999999999886
100
AcDbArc
 50
180.0
 51
270.0
  0
ARC
  5
272
330
1F
100
AcDbEntity
  8
0
  6
Continuous
 62
     7
370
    15
100
AcDbCircle
 10
-469.0184376845
 20
-157.2917843246
 30
0.0
 40
0.1999999999999886
100
AcDbArc
 50
270.0
 51
0.0
  0
ARC
  5
273
330
1F
100
AcDbEntity
  8
0
  6
Continuous
 62
     7
370
    15
100
AcDbCircle
 10
-488.2353062927
 20
-274.4104704069
 30
0.0
 40
120.0
100
AcDbArc
 50
80.7694259592
 51
86.6956102374
  0
ARC
  5
274
330
1F
100
AcDbEntity
  8
0
  6
Continuous
 62
     7
370
    15
100
AcDbCircle
 10
-479.4015690763
 20
-274.4104704069
 30
0.0
 40
120.0
100
AcDbArc
 50
93.3038183851
 51
99.2305740408
  0
ARC
  5
275
330
1F
100
AcDbEntity
  8
0
  6
Continuous
 62
     7
370
    15
100
AcDbCircle
 10
-493.7684376845
 20
-157.6917843246
 30
0.0
 40
0.2000000000000171
100
AcDbArc
 50
0.0
 51
90.0
  0
ARC
  5
276
330
1F
100
AcDbEntity
  8
0
  6
Continuous
 62
     7
370
    15
100
AcDbCircle
 10
-473.8684376845
 20
-157.6917843246
 30
0.0
 40
0.2000000000000171
100
AcDbArc
 50
90.0
 51
180.0
  0
LINE
  5
277
330
1F
100
AcDbEntity
  8
0
  6
Continuous
 62
     7
370
    15
100
AcDbLine
 10
-493.5684362838
 20
-157.6917846107
 30
0.0
 11
-493.5684362838
 21
-157.9917841011
 31
0.0
  0
LINE
  5
278
330
1F
100
AcDbEntity
  8
0
  6
Continuous
 62
     7
370
    15
100
AcDbLine
 10
-474.0684377441
 20
-157.9917841011
 30
0.0
 11
-474.0684377441
 21
-157.6917846107
 31
0.0
  0
LINE
  5
279
330
1F
100
AcDbEntity
  8
0
  6
Continuous
 62
     7
370
    15
100
AcDbLine
 10
201.1815337053
 20
-156.1617836708
 30
0.0
 11
201.1815337053
 21
-157.2917843589
 31
0.0
  0
LINE
  5
27A
330
1F
100
AcDbEntity
  8
0
  6
Continuous
 62
     7
370
    15
100
AcDbLine
 10
231.1815646997
 20
-157.2917843589
 30
0.0
 11
231.1815646997
 21
-156.1617836708
 31
0.0
  0
ARC
  5
27B
330
1F
100
AcDbEntity
  8
0
  6
Continuous
 62
     7
370
    15
100
AcDbCircle
 10
230.9815623155
 20
-156.161783476
 30
0.0
 40
0.1999999999999994
100
AcDbArc
 50
0.0
 51
80.7694259592
  0
ARC
  5
27C
330
1F
100
AcDbEntity
  8
0
  6
Continuous
 62
     7
370
    15
100
AcDbCircle
 10
201.3815623155
 20
-156.161783476
 30
0.0
 40
0.1999999999999994
100
AcDbArc
 50
99.2305740408
 51
180.0
  0
ARC
  5
27D
330
1F
100
AcDbEntity
  8
0
  6
Continuous
 62
     7
370
    15
100
AcDbCircle
 10
201.3815623155
 20
-157.2917843246
 30
0.0
 40
0.1999999999999886
100
AcDbArc
 50
180.0
 51
270.0
  0
ARC
  5
27E
330
1F
100
AcDbEntity
  8
0
  6
Continuous
 62
     7
370
    15
100
AcDbCircle
 10
230.9815623155
 20
-157.2917843246
 30
0.0
 40
0.1999999999999886
100
AcDbArc
 50
270.0
 51
0.0
  0
ARC
  5
27F
330
1F
100
AcDbEntity
  8
0
  6
Continuous
 62
     7
370
    15
100
AcDbCircle
 10
211.7646937073
 20
-274.4104704069
 30
0.0
 40
120.0000000000001
100
AcDbArc
 50
80.7694259592
 51
86.6956102374
  0
ARC
  5
280
330
1F
100
AcDbEntity
  8
0
  6
Continuous
 62
     7
370
    15
100
AcDbCircle
 10
220.5984309237
 20
-274.4104704069
 30
0.0
 40
120.0
100
AcDbArc
 50
93.3038183851
 51
99.2305740408
  0
ARC
  5
281
330
1F
100
AcDbEntity
  8
0
  6
Continuous
 62
     7
370
    15
100
AcDbCircle
 10
206.2315623155
 20
-157.6917843246
 30
0.0
 40
0.1999999999999886
100
AcDbArc
 50
0.0
 51
90.0
  0
ARC
  5
282
330
1F
100
AcDbEntity
  8
0
  6
Continuous
 62
     7
370
    15
100
AcDbCircle
 10
226.1315623155
 20
-157.6917843246
 30
0.0
 40
0.1999999999999886
100
AcDbArc
 50
90.0
 51
180.0
  0
LINE
  5
283
330
1F
100
AcDbEntity
  8
0
  6
Continuous
 62
     7
370
    15
100
AcDbLine
 10
206.4315704217
 20
-157.6917846107
 30
0.0
 11
206.4315704217
 21
-157.9917841011
 31
0.0
  0
LINE
  5
284
330
1F
100
AcDbEntity
  8
0
  6
Continuous
 62
     7
370
    15
100
AcDbLine
 10
225.9315875879
 20
-157.9917841011
 30
0.0
 11
225.9315875879
 21
-157.6917846107
 31
0.0
  0
LINE
  5
285
330
1F
100
AcDbEntity
  8
0
  6
Continuous
 62
     7
370
    15
100
AcDbLine
 10
231.1815646997
 20
-185.2917861545
 30
0.0
 11
231.1815646997
 21
-185.1917844617
 31
0.0
  0
LINE
  5
286
330
1F
100
AcDbEntity
  8
0
  6
Continuous
 62
     7
370
    15
100
AcDbLine
 10
201.1815337053
 20
-185.1917844617
 30
0.0
 11
201.1815337053
 21
-185.2917861545
 31
0.0
  0
LINE
  5
287
330
1F
100
AcDbEntity
  8
0
  6
Continuous
 62
     7
370
    15
100
AcDbLine
 10
201.1815337053
 20
-185.2917861545
 30
0.0
 11
201.3815668931
 21
-185.4917858147
 31
0.0
  0
LINE
  5
288
330
1F
100
AcDbEntity
  8
0
  6
Continuous
 62
     7
370
    15
100
AcDbLine
 10
230.9815911165
 20
-185.4917858147
 30
0.0
 11
231.1815646997
 21
-185.2917861545
 31
0.0
  0
LINE
  5
289
330
1F
100
AcDbEntity
  8
0
  6
Continuous
 62
     7
370
    15
100
AcDbLine
 10
-468.8184373492
 20
-185.2917861545
 30
0.0
 11
-468.8184373492
 21
-185.1917844617
 31
0.0
  0
LINE
  5
28A
330
1F
100
AcDbEntity
  8
0
  6
Continuous
 62
     7
370
    15
100
AcDbLine
 10
-498.8184394726
 20
-185.1917844617
 30
0.0
 11
-498.8184394726
 21
-185.2917861545
 31
0.0
  0
LINE
  5
28B
330
1F
100
AcDbEntity
  8
0
  6
Continuous
 62
     7
370
    15
100
AcDbLine
 10
-498.8184394726
 20
-185.2917861545
 30
0.0
 11
-498.6184360871
 21
-185.4917858147
 31
0.0
  0
LINE
  5
28C
330
1F
100
AcDbEntity
  8
0
  6
Continuous
 62
     7
370
    15
100
AcDbLine
 10
-469.0184379408
 20
-185.4917858147
 30
0.0
 11
-468.8184373492
 21
-185.2917861545
 31
0.0
  0
LINE
  5
28D
330
1F
100
AcDbEntity
  8
0
  6
Continuous
 62
     7
370
    15
100
AcDbLine
 10
-454.818437732
 20
-178.991783818
 30
0.0
 11
-454.818437732
 21
-177.4917845034
 31
0.0
  0
LINE
  5
28E
330
1F
100
AcDbEntity
  8
0
  6
Continuous
 62
     7
370
    15
100
AcDbLine
 10
-512.8184380421
 20
-177.4917845034
 30
0.0
 11
-512.8184380421
 21
-178.991783818
 31
0.0
  0
LINE
  5
28F
330
1F
100
AcDbEntity
  8
0
  6
Continuous
 62
     7
370
    15
100
AcDbLine
 10
-506.8184370587
 20
-174.2917843515
 30
0.0
 11
-506.8184370587
 21
-177.4917845034
 31
0.0
  0
LINE
  5
290
330
1F
100
AcDbEntity
  8
0
  6
Continuous
 62
     7
370
    15
100
AcDbLine
 10
-512.8184380421
 20
-157.9917841011
 30
0.0
 11
-512.8184380421
 21
-159.491784347
 31
0.0
  0
LINE
  5
291
330
1F
100
AcDbEntity
  8
0
  6
Continuous
 62
     7
370
    15
100
AcDbLine
 10
-454.818437732
 20
-159.491784347
 30
0.0
 11
-454.818437732
 21
-157.9917841011
 31
0.0
  0
LINE
  5
292
330
1F
100
AcDbEntity
  8
0
  6
Continuous
 62
     7
370
    15
100
AcDbLine
 10
-506.8184370587
 20
-159.491784347
 30
0.0
 11
-506.8184370587
 21
-162.691784499
 31
0.0
  0
LINE
  5
293
330
1F
100
AcDbEntity
  8
0
  6
Continuous
 62
     7
370
    15
100
AcDbLine
 10
245.1815632692
 20
-178.991783818
 30
0.0
 11
245.1815632692
 21
-177.4917845034
 31
0.0
  0
LINE
  5
294
330
1F
100
AcDbEntity
  8
0
  6
Continuous
 62
     7
370
    15
100
AcDbLine
 10
187.1815351358
 20
-177.4917845034
 30
0.0
 11
187.1815351358
 21
-178.991783818
 31
0.0
  0
LINE
  5
295
330
1F
100
AcDbEntity
  8
0
  6
Continuous
 62
     7
370
    15
100
AcDbLine
 10
187.1815351358
 20
-157.9917841011
 30
0.0
 11
187.1815351358
 21
-159.491784347
 31
0.0
  0
LINE
  5
296
330
1F
100
AcDbEntity
  8
0
  6
Continuous
 62
     7
370
    15
100
AcDbLine
 10
245.1815632692
 20
-159.491784347
 30
0.0
 11
245.1815632692
 21
-157.9917841011
 31
0.0
  0
ARC
  5
297
330
1F
100
AcDbEntity
  8
0
  6
Continuous
 62
     7
370
    15
100
AcDbCircle
 10
-445.2184376845
 20
-168.5178357479
 30
0.0
 40
12.49999999999993
100
AcDbArc
 50
140.1746287392
 51
219.8253712608
  0
ARC
  5
298
330
1F
100
AcDbEntity
  8
0
  6
Continuous
 62
     7
370
    15
100
AcDbCircle
 10
-522.4184376845
 20
-168.5178357479
 30
0.0
 40
12.49999999999993
100
AcDbArc
 50
320.1746287392
 51
39.8253712608
  0
LINE
  5
299
330
1F
100
AcDbEntity
  8
0
  6
Continuous
 62
     7
370
    15
100
AcDbLine
 10
-454.818437732
 20
-160.5122130716
 30
0.0
 11
-454.818437732
 21
-159.491784347
 31
0.0
  0
LINE
  5
29A
330
1F
100
AcDbEntity
  8
0
  6
Continuous
 62
     7
370
    15
100
AcDbLine
 10
-512.8184380421
 20
-159.491784347
 30
0.0
 11
-512.8184380421
 21
-160.5122130716
 31
0.0
  0
LINE
  5
29B
330
1F
100
AcDbEntity
  8
0
  6
Continuous
 62
     7
370
    15
100
AcDbLine
 10
-454.818437732
 20
-177.4917845034
 30
0.0
 11
-454.818437732
 21
-176.5234586203
 31
0.0
  0
LINE
  5
29C
330
1F
100
AcDbEntity
  8
0
  6
Continuous
 62
     7
370
    15
100
AcDbLine
 10
-512.8184380421
 20
-176.5234586203
 30
0.0
 11
-512.8184380421
 21
-177.4917845034
 31
0.0
  0
LINE
  5
29D
330
1F
100
AcDbEntity
  8
0
  6
Continuous
 62
     7
370
    15
100
AcDbLine
 10
245.1815632692
 20
-160.5122130716
 30
0.0
 11
245.1815632692
 21
-159.491784347
 31
0.0
  0
LINE
  5
29E
330
1F
100
AcDbEntity
  8
0
  6
Continuous
 62
     7
370
    15
100
AcDbLine
 10
187.1815351358
 20
-159.491784347
 30
0.0
 11
187.1815351358
 21
-160.5122130716
 31
0.0
  0
ARC
  5
29F
330
1F
100
AcDbEntity
  8
0
  6
Continuous
 62
     7
370
    15
100
AcDbCircle
 10
254.7815623155
 20
-168.5178357479
 30
0.0
 40
12.49999999999995
100
AcDbArc
 50
140.1746287392
 51
219.8253712608
  0
ARC
  5
2A0
330
1F
100
AcDbEntity
  8
0
  6
Continuous
 62
     7
370
    15
100
AcDbCircle
 10
177.5815623155
 20
-168.5178357479
 30
0.0
 40
12.49999999999997
100
AcDbArc
 50
320.1746287392
 51
39.8253712608
  0
LINE
  5
2A1
330
1F
100
AcDbEntity
  8
0
  6
Continuous
 62
     7
370
    15
100
AcDbLine
 10
245.1815632692
 20
-177.4917845034
 30
0.0
 11
245.1815632692
 21
-176.5234586203
 31
0.0
  0
LINE
  5
2A2
330
1F
100
AcDbEntity
  8
0
  6
Continuous
 62
     7
370
    15
100
AcDbLine
 10
187.1815351358
 20
-176.5234586203
 30
0.0
 11
187.1815351358
 21
-177.4917845034
 31
0.0
  0
LINE
  5
2A3
330
1F
100
AcDbEntity
  8
0
  6
Continuous
 62
     7
370
    15
100
AcDbLine
 10
-468.8184373492
 20
-179.7917861843
 30
0.0
 11
-469.1184377709
 21
-179.4917848313
 31
0.0
  0
LINE
  5
2A4
330
1F
100
AcDbEntity
  8
0
  6
Continuous
 62
     7
370
    15
100
AcDbLine
 10
-498.5184381196
 20
-179.4917848313
 30
0.0
 11
-498.8184394726
 21
-179.7917861843
 31
0.0
  0
LINE
  5
2A5
330
1F
100
AcDbEntity
  8
0
  6
Continuous
 62
     7
370
    15
100
AcDbLine
 10
-468.8184373492
 20
-185.1917844617
 30
0.0
 11
-468.8184373492
 21
-179.7917861843
 31
0.0
  0
LINE
  5
2A6
330
1F
100
AcDbEntity
  8
0
  6
Continuous
 62
     7
370
    15
100
AcDbLine
 10
-498.8184394726
 20
-179.7917861843
 30
0.0
 11
-498.8184394726
 21
-185.1917844617
 31
0.0
  0
LINE
  5
2A7
330
1F
100
AcDbEntity
  8
0
  6
Continuous
 62
     7
370
    15
100
AcDbLine
 10
-498.8184394726
 20
-185.1917844617
 30
0.0
 11
-498.5184381196
 21
-185.4917858147
 31
0.0
  0
LINE
  5
2A8
330
1F
100
AcDbEntity
  8
0
  6
Continuous
 62
     7
370
    15
100
AcDbLine
 10
-469.1184377709
 20
-185.4917858147
 30
0.0
 11
-468.8184373492
 21
-185.1917844617
 31
0.0
  0
LINE
  5
2A9
330
1F
100
AcDbEntity
  8
0
  6
Continuous
 62
     7
370
    15
100
AcDbLine
 10
-474.0684377441
 20
-179.4917848313
 30
0.0
 11
-474.0684377441
 21
-178.991783818
 31
0.0
  0
LINE
  5
2AA
330
1F
100
AcDbEntity
  8
0
  6
Continuous
 62
     7
370
    15
100
AcDbLine
 10
-493.5684362838
 20
-178.991783818
 30
0.0
 11
-493.5684362838
 21
-179.4917848313
 31
0.0
  0
LINE
  5
2AB
330
1F
100
AcDbEntity
  8
0
  6
Continuous
 62
     7
370
    15
100
AcDbLine
 10
231.1815646997
 20
-179.7917861843
 30
0.0
 11
230.8815745225
 21
-179.4917848313
 31
0.0
  0
LINE
  5
2AC
330
1F
100
AcDbEntity
  8
0
  6
Continuous
 62
     7
370
    15
100
AcDbLine
 10
201.4815834871
 20
-179.4917848313
 30
0.0
 11
201.1815337053
 21
-179.7917861843
 31
0.0
  0
LINE
  5
2AD
330
1F
100
AcDbEntity
  8
0
  6
Continuous
 62
     7
370
    15
100
AcDbLine
 10
231.1815646997
 20
-185.1917844617
 30
0.0
 11
231.1815646997
 21
-179.7917861843
 31
0.0
  0
LINE
  5
2AE
330
1F
100
AcDbEntity
  8
0
  6
Continuous
 62
     7
370
    15
100
AcDbLine
 10
201.1815337053
 20
-179.7917861843
 30
0.0
 11
201.1815337053
 21
-185.1917844617
 31
0.0
  0
LINE
  5
2AF
330
1F
100
AcDbEntity
  8
0
  6
Continuous
 62
     7
370
    15
100
AcDbLine
 10
201.1815337053
 20
-185.1917844617
 30
0.0
 11
201.4815834871
 21
-185.4917858147
 31
0.0
  0
LINE
  5
2B0
330
1F
100
AcDbEntity
  8
0
  6
Continuous
 62
     7
370
    15
100
AcDbLine
 10
230.8815745225
 20
-185.4917858147
 30
0.0
 11
231.1815646997
 21
-185.1917844617
 31
0.0
  0
LINE
  5
2B1
330
1F
100
AcDbEntity
  8
0
  6
Continuous
 62
     7
370
    15
100
AcDbLine
 10
225.9315875879
 20
-179.4917848313
 30
0.0
 11
225.9315875879
 21
-178.991783818
 31
0.0
  0
LINE
  5
2B2
330
1F
100
AcDbEntity
  8
0
  6
Continuous
 62
     7
370
    15
100
AcDbLine
 10
206.4315704217
 20
-178.991783818
 30
0.0
 11
206.4315704217
 21
-179.4917848313
 31
0.0
  0
LINE
  5
2B3
330
1F
100
AcDbEntity
  8
0
  6
Continuous
 62
     7
370
    15
100
AcDbLine
 10
-471.318437759
 20
-192.8233955407
 30
0.0
 11
-471.318437759
 21
-191.4917830729
 31
0.0
  0
LINE
  5
2B4
330
1F
100
AcDbEntity
  8
0
  6
Continuous
 62
     7
370
    15
100
AcDbLine
 10
-496.3184381315
 20
-191.4917830729
 30
0.0
 11
-496.3184381315
 21
-192.8233955407
 31
0.0
  0
ARC
  5
2B5
330
1F
100
AcDbEntity
  8
0
  6
Continuous
 62
     7
370
    15
100
AcDbCircle
 10
-496.1184376845
 20
-192.823397027
 30
0.0
 40
0.2000000000000298
100
AcDbArc
 50
180.0
 51
260.2307482568
  0
ARC
  5
2B6
330
1F
100
AcDbEntity
  8
0
  6
Continuous
 62
     7
370
    15
100
AcDbCircle
 10
-471.5184376845
 20
-192.823397027
 30
0.0
 40
0.2000000000001023
100
AcDbArc
 50
279.7692517432
 51
0.0
  0
ARC
  5
2B7
330
1F
100
AcDbEntity
  8
0
  6
Continuous
 62
     7
370
    15
100
AcDbCircle
 10
-475.7906961339
 20
-74.7606047364
 30
0.0
 40
120.0
100
AcDbArc
 50
260.2307482568
 51
266.16417102
  0
ARC
  5
2B8
330
1F
100
AcDbEntity
  8
0
  6
Continuous
 62
     7
370
    15
100
AcDbCircle
 10
-491.8461792351
 20
-74.7606047364
 30
0.0
 40
120.0
100
AcDbArc
 50
273.83582898
 51
279.7692517432
  0
LINE
  5
2B9
330
1F
100
AcDbEntity
  8
0
  6
Continuous
 62
     7
370
    15
100
AcDbLine
 10
228.6815670839
 20
-192.8233955407
 30
0.0
 11
228.6815670839
 21
-191.4917830729
 31
0.0
  0
LINE
  5
2BA
330
1F
100
AcDbEntity
  8
0
  6
Continuous
 62
     7
370
    15
100
AcDbLine
 10
203.6815909257
 20
-191.4917830729
 30
0.0
 11
203.6815909257
 21
-192.8233955407
 31
0.0
  0
ARC
  5
2BB
330
1F
100
AcDbEntity
  8
0
  6
Continuous
 62
     7
370
    15
100
AcDbCircle
 10
203.8815623155
 20
-192.823397027
 30
0.0
 40
0.2000000000000298
100
AcDbArc
 50
180.0
 51
260.2307482568
  0
ARC
  5
2BC
330
1F
100
AcDbEntity
  8
0
  6
Continuous
 62
     7
370
    15
100
AcDbCircle
 10
228.4815623155
 20
-192.823397027
 30
0.0
 40
0.2000000000000298
100
AcDbArc
 50
279.7692517432
 51
0.0
  0
ARC
  5
2BD
330
1F
100
AcDbEntity
  8
0
  6
Continuous
 62
     7
370
    15
100
AcDbCircle
 10
224.2093038661
 20
-74.7606047364
 30
0.0
 40
120.0
100
AcDbArc
 50
260.2307482568
 51
266.16417102
  0
ARC
  5
2BE
330
1F
100
AcDbEntity
  8
0
  6
Continuous
 62
     7
370
    15
100
AcDbCircle
 10
208.1538207649
 20
-74.7606047364
 30
0.0
 40
120.0
100
AcDbArc
 50
273.83582898
 51
279.7692517432
  0
LINE
  5
2BF
330
1F
100
AcDbEntity
  8
0
  6
Continuous
 62
     7
370
    15
100
AcDbLine
 10
-504.8184367308
 20
-194.4217834973
 30
0.0
 11
-504.8184367308
 21
-193.0917840803
 31
0.0
  0
LINE
  5
2C0
330
1F
100
AcDbEntity
  8
0
  6
Continuous
 62
     7
370
    15
100
AcDbLine
 10
-534.8184379229
 20
-193.0917840803
 30
0.0
 11
-534.8184379229
 21
-194.4217834973
 31
0.0
  0
ARC
  5
2C1
330
1F
100
AcDbEntity
  8
0
  6
Continuous
 62
     7
370
    15
100
AcDbCircle
 10
-534.6184376845
 20
-194.4217851733
 30
0.0
 40
0.2000000000002728
100
AcDbArc
 50
180.0
 51
260.7694259591
  0
ARC
  5
2C2
330
1F
100
AcDbEntity
  8
0
  6
Continuous
 62
     7
370
    15
100
AcDbCircle
 10
-505.0184376845
 20
-194.4217851733
 30
0.0
 40
0.2000000000000222
100
AcDbArc
 50
279.2305740409
 51
0.0
  0
ARC
  5
2C3
330
1F
100
AcDbEntity
  8
0
  6
Continuous
 62
     7
370
    15
100
AcDbCircle
 10
-515.4015690763
 20
-76.1730982424
 30
0.0
 40
120.0
100
AcDbArc
 50
260.7694259592
 51
266.5831083863
  0
ARC
  5
2C4
330
1F
100
AcDbEntity
  8
0
  6
Continuous
 62
     7
370
    15
100
AcDbCircle
 10
-524.2353062927
 20
-76.1730982424
 30
0.0
 40
120.0
100
AcDbArc
 50
273.4163951255
 51
279.2305740408
  0
LINE
  5
2C5
330
1F
100
AcDbEntity
  8
0
  6
Continuous
 62
     7
370
    15
100
AcDbLine
 10
1155.1815298906
 20
-194.4217834973
 30
0.0
 11
1155.1815298906
 21
-193.0917840803
 31
0.0
  0
LINE
  5
2C6
330
1F
100
AcDbEntity
  8
0
  6
Continuous
 62
     7
370
    15
100
AcDbLine
 10
1125.1815585008
 20
-193.0917840803
 30
0.0
 11
1125.1815585008
 21
-194.4217834973
 31
0.0
  0
ARC
  5
2C7
330
1F
100
AcDbEntity
  8
0
  6
Continuous
 62
     7
370
    15
100
AcDbCircle
 10
1125.3815623155
 20
-194.4217851733
 30
0.0
 40
0.2000000000000455
100
AcDbArc
 50
180.0
 51
260.7694259591
  0
ARC
  5
2C8
330
1F
100
AcDbEntity
  8
0
  6
Continuous
 62
     7
370
    15
100
AcDbCircle
 10
1154.9815623155
 20
-194.4217851733
 30
0.0
 40
0.1999999999999948
100
AcDbArc
 50
279.2305740408
 51
0.0
  0
ARC
  5
2C9
330
1F
100
AcDbEntity
  8
0
  6
Continuous
 62
     7
370
    15
100
AcDbCircle
 10
1144.5984309237
 20
-76.1730982424
 30
0.0
 40
120.0
100
AcDbArc
 50
260.7694259592
 51
266.5831083863
  0
ARC
  5
2CA
330
1F
100
AcDbEntity
  8
0
  6
Continuous
 62
     7
370
    15
100
AcDbCircle
 10
1135.7646937073
 20
-76.1730982424
 30
0.0
 40
120.0
100
AcDbArc
 50
273.4163951255
 51
279.2305740408
  0
LINE
  5
2CB
330
1F
100
AcDbEntity
  8
0
  6
Continuous
 62
     7
370
    15
100
AcDbLine
 10
1120.1815632692
 20
-185.091782769
 30
0.0
 11
1120.1815632692
 21
-193.0917840803
 31
0.0
  0
LINE
  5
2CC
330
1F
100
AcDbEntity
  8
0
  6
Continuous
 62
     7
370
    15
100
AcDbLine
 10
1160.1815251222
 20
-193.0917840803
 30
0.0
 11
1160.1815251222
 21
-185.091782769
 31
0.0
  0
LINE
  5
2CD
330
1F
100
AcDbEntity
  8
0
  6
Continuous
 62
     7
370
    15
100
AcDbLine
 10
-539.8184406051
 20
-185.091782769
 30
0.0
 11
-539.8184406051
 21
-193.0917840803
 31
0.0
  0
LINE
  5
2CE
330
1F
100
AcDbEntity
  8
0
  6
Continuous
 62
     7
370
    15
100
AcDbLine
 10
-499.8184377739
 20
-193.0917840803
 30
0.0
 11
-499.8184377739
 21
-185.091782769
 31
0.0
  0
LINE
  5
2CF
330
1F
100
AcDbEntity
  8
0
  6
Continuous
 62
     7
370
    15
100
AcDbLine
 10
1156.1815766206
 20
-154.2917843328
 30
0.0
 11
1154.3815163484
 21
-152.4917841309
 31
0.0
  0
LINE
  5
2D0
330
1F
100
AcDbEntity
  8
0
  6
Continuous
 62
     7
370
    15
100
AcDbLine
 10
1125.981572043
 20
-152.4917841309
 30
0.0
 11
1124.1815117708
 21
-154.2917843328
 31
0.0
  0
LINE
  5
2D1
330
1F
100
AcDbEntity
  8
0
  6
Continuous
 62
     7
370
    15
100
AcDbLine
 10
1124.1815117708
 20
-180.9917841458
 30
0.0
 11
1124.1815117708
 21
-185.091782769
 31
0.0
  0
LINE
  5
2D2
330
1F
100
AcDbEntity
  8
0
  6
Continuous
 62
     7
370
    15
100
AcDbLine
 10
1124.1815117708
 20
-154.2917843328
 30
0.0
 11
1124.1815117708
 21
-155.8917839432
 31
0.0
  0
LINE
  5
2D3
330
1F
100
AcDbEntity
  8
0
  6
Continuous
 62
     7
370
    15
100
AcDbLine
 10
1156.1815766206
 20
-155.8917839432
 30
0.0
 11
1156.1815766206
 21
-154.2917843328
 31
0.0
  0
LINE
  5
2D4
330
1F
100
AcDbEntity
  8
0
  6
Continuous
 62
     7
370
    15
100
AcDbLine
 10
1156.1815766206
 20
-185.091782769
 30
0.0
 11
1156.1815766206
 21
-180.9917841458
 31
0.0
  0
LINE
  5
2D5
330
1F
100
AcDbEntity
  8
0
  6
Continuous
 62
     7
370
    15
100
AcDbLine
 10
-503.8184384296
 20
-154.2917843328
 30
0.0
 11
-505.6184390971
 21
-152.4917841309
 31
0.0
  0
LINE
  5
2D6
330
1F
100
AcDbEntity
  8
0
  6
Continuous
 62
     7
370
    15
100
AcDbLine
 10
-534.0184392819
 20
-152.4917841309
 30
0.0
 11
-535.8184399495
 21
-154.2917843328
 31
0.0
  0
LINE
  5
2D7
330
1F
100
AcDbEntity
  8
0
  6
Continuous
 62
     7
370
    15
100
AcDbLine
 10
-535.8184399495
 20
-180.9917841458
 30
0.0
 11
-535.8184399495
 21
-185.091782769
 31
0.0
  0
LINE
  5
2D8
330
1F
100
AcDbEntity
  8
0
  6
Continuous
 62
     7
370
    15
100
AcDbLine
 10
-535.8184399495
 20
-154.2917843328
 30
0.0
 11
-535.8184399495
 21
-155.8917839432
 31
0.0
  0
LINE
  5
2D9
330
1F
100
AcDbEntity
  8
0
  6
Continuous
 62
     7
370
    15
100
AcDbLine
 10
-503.8184384296
 20
-155.8917839432
 30
0.0
 11
-503.8184384296
 21
-154.2917843328
 31
0.0
  0
LINE
  5
2DA
330
1F
100
AcDbEntity
  8
0
  6
Continuous
 62
     7
370
    15
100
AcDbLine
 10
-503.8184384296
 20
-185.091782769
 30
0.0
 11
-503.8184384296
 21
-180.9917841458
 31
0.0
  0
LINE
  5
2DB
330
1F
100
AcDbEntity
  8
0
  6
Continuous
 62
     7
370
    15
100
AcDbLine
 10
576.8481520524
 20
-117.9917849952
 30
0.0
 11
573.8481310716
 21
-107.9917852187
 31
0.0
  0
LINE
  5
2DC
330
1F
100
AcDbEntity
  8
0
  6
Continuous
 62
     7
370
    15
100
AcDbLine
 10
571.8481568208
 20
-107.9917852187
 30
0.0
 11
568.84813584
 21
-117.9917849952
 31
0.0
  0
LINE
  5
2DD
330
1F
100
AcDbEntity
  8
0
  6
Continuous
 62
     7
370
    15
100
AcDbLine
 10
568.84813584
 20
-117.9917849952
 30
0.0
 11
568.84813584
 21
-147.9917843246
 31
0.0
  0
LINE
  5
2DE
330
1F
100
AcDbEntity
  8
0
  6
Continuous
 62
     7
370
    15
100
AcDbLine
 10
576.8481520524
 20
-147.9917843246
 30
0.0
 11
576.8481520524
 21
-117.9917849952
 31
0.0
  0
LINE
  5
2DF
330
1F
100
AcDbEntity
  8
0
  6
Continuous
 62
     7
370
    15
100
AcDbLine
 10
1090.1814726701
 20
-117.9917849952
 30
0.0
 11
1087.1814516893
 21
-107.9917852187
 31
0.0
  0
LINE
  5
2E0
330
1F
100
AcDbEntity
  8
0
  6
Continuous
 62
     7
370
    15
100
AcDbLine
 10
1085.1814774385
 20
-107.9917852187
 30
0.0
 11
1082.1814564576
 21
-117.9917849952
 31
0.0
  0
LINE
  5
2E1
330
1F
100
AcDbEntity
  8
0
  6
Continuous
 62
     7
370
    15
100
AcDbLine
 10
1082.1814564576
 20
-117.9917849952
 30
0.0
 11
1082.1814564576
 21
-147.9917843246
 31
0.0
  0
LINE
  5
2E2
330
1F
100
AcDbEntity
  8
0
  6
Continuous
 62
     7
370
    15
100
AcDbLine
 10
1090.1814726701
 20
-147.9917843246
 30
0.0
 11
1090.1814726701
 21
-117.9917849952
 31
0.0
  0
LINE
  5
2E3
330
1F
100
AcDbEntity
  8
0
  6
Continuous
 62
     7
370
    15
100
AcDbLine
 10
63.5148910394
 20
-117.9917849952
 30
0.0
 11
60.5148700586
 21
-107.9917852187
 31
0.0
  0
LINE
  5
2E4
330
1F
100
AcDbEntity
  8
0
  6
Continuous
 62
     7
370
    15
100
AcDbLine
 10
58.5148362031
 20
-107.9917852187
 30
0.0
 11
55.5148748269
 21
-117.9917849952
 31
0.0
  0
LINE
  5
2E5
330
1F
100
AcDbEntity
  8
0
  6
Continuous
 62
     7
370
    15
100
AcDbLine
 10
55.5148748269
 20
-117.9917849952
 30
0.0
 11
55.5148748269
 21
-147.9917843246
 31
0.0
  0
LINE
  5
2E6
330
1F
100
AcDbEntity
  8
0
  6
Continuous
 62
     7
370
    15
100
AcDbLine
 10
63.5148910394
 20
-147.9917843246
 30
0.0
 11
63.5148910394
 21
-117.9917849952
 31
0.0
  0
LINE
  5
2E7
330
1F
100
AcDbEntity
  8
0
  6
Continuous
 62
     7
370
    15
100
AcDbLine
 10
-449.8184374945
 20
-117.9917849952
 30
0.0
 11
-452.818437637
 21
-107.9917852187
 31
0.0
  0
LINE
  5
2E8
330
1F
100
AcDbEntity
  8
0
  6
Continuous
 62
     7
370
    15
100
AcDbLine
 10
-454.818437732
 20
-107.9917852187
 30
0.0
 11
-457.8184378745
 21
-117.9917849952
 31
0.0
  0
LINE
  5
2E9
330
1F
100
AcDbEntity
  8
0
  6
Continuous
 62
     7
370
    15
100
AcDbLine
 10
-457.8184378745
 20
-117.9917849952
 30
0.0
 11
-457.8184378745
 21
-147.9917843246
 31
0.0
  0
LINE
  5
2EA
330
1F
100
AcDbEntity
  8
0
  6
Continuous
 62
     7
370
    15
100
AcDbLine
 10
-449.8184374945
 20
-147.9917843246
 30
0.0
 11
-449.8184374945
 21
-117.9917849952
 31
0.0
  0
LINE
  5
2EB
330
1F
100
AcDbEntity
  8
0
  6
Continuous
 62
     7
370
    15
100
AcDbLine
 10
-461.3184375169
 20
-151.9917845146
 30
0.0
 11
-461.3184375169
 21
-155.9917847046
 31
0.0
  0
LINE
  5
2EC
330
1F
100
AcDbEntity
  8
0
  6
Continuous
 62
     7
370
    15
100
AcDbLine
 10
-446.3184378521
 20
-155.9917847046
 30
0.0
 11
-446.3184378521
 21
-151.9917845146
 31
0.0
  0
LINE
  5
2ED
330
1F
100
AcDbEntity
  8
0
  6
Continuous
 62
     7
370
    15
100
AcDbLine
 10
565.3481510988
 20
-151.9917845146
 30
0.0
 11
565.3481510988
 21
-155.9917847046
 31
0.0
  0
LINE
  5
2EE
330
1F
100
AcDbEntity
  8
0
  6
Continuous
 62
     7
370
    15
100
AcDbLine
 10
580.3481367936
 20
-155.9917847046
 30
0.0
 11
580.3481367936
 21
-151.9917845146
 31
0.0
  0
LINE
  5
2EF
330
1F
100
AcDbEntity
  8
0
  6
Continuous
 62
     7
370
    15
100
AcDbLine
 10
1078.6814717164
 20
-151.9917845146
 30
0.0
 11
1078.6814717164
 21
-155.9917847046
 31
0.0
  0
LINE
  5
2F0
330
1F
100
AcDbEntity
  8
0
  6
Continuous
 62
     7
370
    15
100
AcDbLine
 10
1093.6814574113
 20
-155.9917847046
 30
0.0
 11
1093.6814574113
 21
-151.9917845146
 31
0.0
  0
LINE
  5
2F1
330
1F
100
AcDbEntity
  8
0
  6
Continuous
 62
     7
370
    15
100
AcDbLine
 10
52.0148900857
 20
-151.9917845146
 30
0.0
 11
52.0148900857
 21
-155.9917847046
 31
0.0
  0
LINE
  5
2F2
330
1F
100
AcDbEntity
  8
0
  6
Continuous
 62
     7
370
    15
100
AcDbLine
 10
67.0148757806
 20
-155.9917847046
 30
0.0
 11
67.0148757806
 21
-151.9917845146
 31
0.0
  0
LINE
  5
2F3
330
1F
100
AcDbEntity
  8
0
  6
Continuous
 62
     7
370
    15
100
AcDbLine
 10
-483.818437014
 20
-147.9917843246
 30
0.0
 11
-483.818437014
 21
-149.9917844196
 31
0.0
  0
LINE
  5
2F4
330
1F
100
AcDbEntity
  8
0
  6
Continuous
 62
     7
370
    15
100
AcDbLine
 10
-423.8184383551
 20
-149.9917844196
 30
0.0
 11
-423.8184383551
 21
-147.9917843246
 31
0.0
  0
LINE
  5
2F5
330
1F
100
AcDbEntity
  8
0
  6
Continuous
 62
     7
370
    15
100
AcDbLine
 10
-483.818437014
 20
-149.9917844196
 30
0.0
 11
-468.8184373492
 21
-151.9917845146
 31
0.0
  0
LINE
  5
2F6
330
1F
100
AcDbEntity
  8
0
  6
Continuous
 62
     7
370
    15
100
AcDbLine
 10
-438.8184380198
 20
-151.9917845146
 30
0.0
 11
-423.8184383551
 21
-149.9917844196
 31
0.0
  0
LINE
  5
2F7
330
1F
100
AcDbEntity
  8
0
  6
Continuous
 62
     7
370
    15
100
AcDbLine
 10
542.8481725564
 20
-147.9917843246
 30
0.0
 11
542.8481725564
 21
-149.9917844196
 31
0.0
  0
LINE
  5
2F8
330
1F
100
AcDbEntity
  8
0
  6
Continuous
 62
     7
370
    15
100
AcDbLine
 10
602.8481749406
 20
-149.9917844196
 30
0.0
 11
602.8481749406
 21
-147.9917843246
 31
0.0
  0
LINE
  5
2F9
330
1F
100
AcDbEntity
  8
0
  6
Continuous
 62
     7
370
    15
100
AcDbLine
 10
542.8481725564
 20
-149.9917844196
 30
0.0
 11
557.848217856
 21
-151.9917845146
 31
0.0
  0
LINE
  5
2FA
330
1F
100
AcDbEntity
  8
0
  6
Continuous
 62
     7
370
    15
100
AcDbLine
 10
587.8481892457
 20
-151.9917845146
 30
0.0
 11
602.8481749406
 21
-149.9917844196
 31
0.0
  0
LINE
  5
2FB
330
1F
100
AcDbEntity
  8
0
  6
Continuous
 62
     7
370
    15
100
AcDbLine
 10
1056.1814335695
 20
-147.9917843246
 30
0.0
 11
1056.1814335695
 21
-149.9917844196
 31
0.0
  0
LINE
  5
2FC
330
1F
100
AcDbEntity
  8
0
  6
Continuous
 62
     7
370
    15
100
AcDbLine
 10
1116.1814955583
 20
-149.9917844196
 30
0.0
 11
1116.1814955583
 21
-147.9917843246
 31
0.0
  0
LINE
  5
2FD
330
1F
100
AcDbEntity
  8
0
  6
Continuous
 62
     7
370
    15
100
AcDbLine
 10
1056.1814335695
 20
-149.9917844196
 30
0.0
 11
1071.1814192643
 21
-151.9917845146
 31
0.0
  0
LINE
  5
2FE
330
1F
100
AcDbEntity
  8
0
  6
Continuous
 62
     7
370
    15
100
AcDbLine
 10
1101.1815098634
 20
-151.9917845146
 30
0.0
 11
1116.1814955583
 21
-149.9917844196
 31
0.0
  0
LINE
  5
2FF
330
1F
100
AcDbEntity
  8
0
  6
Continuous
 62
     7
370
    15
100
AcDbLine
 10
29.5148519388
 20
-147.9917843246
 30
0.0
 11
29.5148519388
 21
-149.9917844196
 31
0.0
  0
LINE
  5
300
330
1F
100
AcDbEntity
  8
0
  6
Continuous
 62
     7
370
    15
100
AcDbLine
 10
89.5148543229
 20
-149.9917844196
 30
0.0
 11
89.5148543229
 21
-147.9917843246
 31
0.0
  0
LINE
  5
301
330
1F
100
AcDbEntity
  8
0
  6
Continuous
 62
     7
370
    15
100
AcDbLine
 10
29.5148519388
 20
-149.9917844196
 30
0.0
 11
44.514867436
 21
-151.9917845146
 31
0.0
  0
LINE
  5
302
330
1F
100
AcDbEntity
  8
0
  6
Continuous
 62
     7
370
    15
100
AcDbLine
 10
74.5148686281
 20
-151.9917845146
 30
0.0
 11
89.5148543229
 21
-149.9917844196
 31
0.0
  0
LINE
  5
303
330
1F
100
AcDbEntity
  8
0
  6
Continuous
 62
     7
370
    15
100
AcDbLine
 10
1216.1815194001
 20
-180.9917841458
 30
0.0
 11
1216.1815194001
 21
-155.9917847046
 31
0.0
  0
LINE
  5
304
330
1F
100
AcDbEntity
  8
0
  6
Continuous
 62
     7
370
    15
100
AcDbLine
 10
-583.8184329161
 20
-180.9917841458
 30
0.0
 11
-583.8184329161
 21
-155.9917847046
 31
0.0
  0
LWPOLYLINE
  5
305
330
1F
100
AcDbEntity
  8
0
  6
Continuous
 62
     7
370
    15
100
AcDbPolyline
 90
       13
 70
   128
 43
0.0
 10
1078.6634711137
 20
-180.9726808572
 10
1078.9008168092
 20
-180.8310117924
 10
1079.7574547639
 20
-180.345766654
 10
1081.2605646959
 20
-179.6032008135
 10
1083.524587523
 20
-178.8023118281
 10
1085.6041935792
 20
-178.4708019698
 10
1087.7591399064
 20
-178.5782151276
 10
1089.641693007
 20
-179.0378582084
 10
1091.4658335557
 20
-179.7687787914
 10
1093.0023220887
 20
-180.5652905607
 10
1093.7011269441
 20
-180.9734110141
 10
1093.7315253129
 20
-180.9917841458
 10
1093.7315253129
 20
-180.9917841458
  0
LWPOLYLINE
  5
306
330
1F
100
AcDbEntity
  8
0
  6
Continuous
 62
     7
370
    15
100
AcDbPolyline
 90
       13
 70
   128
 43
0.0
 10
51.6635207048
 20
-180.9726808572
 10
51.9008067956
 20
-180.8310117924
 10
52.7574447503
 20
-180.345766654
 10
54.2605546823
 20
-179.6032008135
 10
56.5245775094
 20
-178.8023118281
 10
58.6042431703
 20
-178.4708019698
 10
60.7590702882
 20
-178.5782151276
 10
62.6416233888
 20
-179.0378582084
 10
64.4658235421
 20
-179.7687787914
 10
66.0022524705
 20
-180.5652905607
 10
66.7011169305
 20
-180.9734110141
 10
66.731574904
 20
-180.9917841458
 10
66.731574904
 20
-180.9917841458
  0
SPLINE
  5
307
330
1F
100
AcDbEntity
  8
0
  6
Continuous
 62
     7
370
    15
100
AcDbSpline
210
0.0
220
0.0
230
1.0
 70
     8
 71
     3
 72
    11
 73
     7
 74
     0
 42
0.000000001
 43
0.00000001
 40
0.0
 40
0.0
 40
0.0
 40
0.0
 40
0.2307236707676625
 40
0.4822370952005023
 40
0.7600032102657008
 40
1.0
 40
1.0
 40
1.0
 40
1.0
 10
-461.3364790977857
 20
-180.9726808571691
 30
0.0
 10
-461.2965496168901
 20
-180.947465971884
 30
0.0
 10
-461.2130927404635
 20
-180.8947641706547
 30
0.0
 10
-460.2724466432791
 20
-180.3571411230418
 30
0.0
 10
-458.9188606159039
 20
-179.6202160874453
 30
0.0
 10
-457.6152693299894
 20
-179.1908201725556
 30
0.0
 10
-457.0110203178546
 20
-178.991783817994
 30
0.0
  0
SPLINE
  5
308
330
1F
100
AcDbEntity
  8
0
  6
Continuous
 62
     7
370
    15
100
AcDbSpline
210
0.0
220
0.0
230
1.0
 70
     8
 71
     3
 72
    14
 73
    10
 74
     0
 42
0.000000001
 43
0.00000001
 40
0.0
 40
0.0
 40
0.0
 40
0.0
 40
0.0333319529220045
 40
0.1978288995159854
 40
0.3538821555822203
 40
0.5338832600808103
 40
0.7441534257202811
 40
0.9483890647020435
 40
1.0
 40
1.0
 40
1.0
 40
1.0
 10
-454.8184377320057
 20
-178.5381812953824
 30
0.0
 10
-454.6781797285639
 20
-178.5134794847635
 30
0.0
 10
-453.8457326609068
 20
-178.3668714530581
 30
0.0
 10
-452.235869487585
 20
-178.5284436265239
 30
0.0
 10
-450.2164287799561
 20
-179.0292485098933
 30
0.0
 10
-448.3538959549151
 20
-179.821393072746
 30
0.0
 10
-446.8793277516107
 20
-180.6209159720244
 30
0.0
 10
-446.3060216574395
 20
-180.969232684506
 30
0.0
 10
-446.2747464895213
 20
-180.9879985755392
 30
0.0
 10
-446.2684374714217
 20
-180.9917841458196
 30
0.0
  0
LWPOLYLINE
  5
309
330
1F
100
AcDbEntity
  8
0
  6
Continuous
 62
     7
370
    15
100
AcDbPolyline
 90
       13
 70
   128
 43
0.0
 10
565.6635788789
 20
-180.9726808572
 10
565.9008053651
 20
-180.8310117924
 10
566.7574433198
 20
-180.345766654
 10
568.2605532518
 20
-179.6032008135
 10
570.5245760789
 20
-178.8023118281
 10
572.6043013444
 20
-178.4708019698
 10
574.7591284623
 20
-178.5782151276
 10
576.6416815629
 20
-179.0378582084
 10
578.4658221116
 20
-179.7687787914
 10
580.0023106447
 20
-180.5652905607
 10
580.7011155
 20
-180.9734110141
 10
580.7315138688
 20
-180.9917841458
 10
580.7315138688
 20
-180.9917841458
  0
LINE
  5
30A
330
1F
100
AcDbEntity
  8
0
  6
Continuous
 62
     7
370
    15
100
AcDbLine
 10
53.1130460611
 20
-180.9917841458
 30
0.0
 11
66.9648674836
 21
-180.9917841458
 31
0.0
  0
LINE
  5
30B
330
1F
100
AcDbEntity
  8
0
  6
Continuous
 62
     7
370
    15
100
AcDbLine
 10
52.064838778
 20
-180.9917841458
 30
0.0
 11
53.1130460611
 21
-180.9917841458
 31
0.0
  0
LINE
  5
30C
330
1F
100
AcDbEntity
  8
0
  6
Continuous
 62
     7
370
    15
100
AcDbLine
 10
53.9723662248
 20
-181.9917861724
 30
0.0
 11
53.0648855081
 21
-181.9917861724
 31
0.0
  0
LINE
  5
30D
330
1F
100
AcDbEntity
  8
0
  6
Continuous
 62
     7
370
    15
100
AcDbLine
 10
65.9648803582
 20
-181.9917861724
 30
0.0
 11
53.9723662248
 21
-181.9917861724
 31
0.0
  0
LINE
  5
30E
330
1F
100
AcDbEntity
  8
0
  6
Continuous
 62
     7
370
    15
100
AcDbLine
 10
566.4463070741
 20
-180.9917841458
 30
0.0
 11
580.2981881013
 21
-180.9917841458
 31
0.0
  0
LINE
  5
30F
330
1F
100
AcDbEntity
  8
0
  6
Continuous
 62
     7
370
    15
100
AcDbLine
 10
565.3982190004
 20
-180.9917841458
 30
0.0
 11
566.4463070741
 21
-180.9917841458
 31
0.0
  0
LINE
  5
310
330
1F
100
AcDbEntity
  8
0
  6
Continuous
 62
     7
370
    15
100
AcDbLine
 10
567.3056868425
 20
-181.9917861724
 30
0.0
 11
566.3981465211
 21
-181.9917861724
 31
0.0
  0
LINE
  5
311
330
1F
100
AcDbEntity
  8
0
  6
Continuous
 62
     7
370
    15
100
AcDbLine
 10
579.2981413713
 20
-181.9917861724
 30
0.0
 11
567.3056868425
 21
-181.9917861724
 31
0.0
  0
LINE
  5
312
330
1F
100
AcDbEntity
  8
0
  6
Continuous
 62
     7
370
    15
100
AcDbLine
 10
-460.2202517392
 20
-180.9917841458
 30
0.0
 11
-446.3684377672
 21
-180.9917841458
 31
0.0
  0
LINE
  5
313
330
1F
100
AcDbEntity
  8
0
  6
Continuous
 62
     7
370
    15
100
AcDbLine
 10
-461.2684376018
 20
-180.9917841458
 30
0.0
 11
-460.2202517392
 21
-180.9917841458
 31
0.0
  0
LINE
  5
314
330
1F
100
AcDbEntity
  8
0
  6
Continuous
 62
     7
370
    15
100
AcDbLine
 10
-459.3609478736
 20
-181.9917861724
 30
0.0
 11
-460.2684379036
 21
-181.9917861724
 31
0.0
  0
LINE
  5
315
330
1F
100
AcDbEntity
  8
0
  6
Continuous
 62
     7
370
    15
100
AcDbLine
 10
-447.3684374655
 20
-181.9917861724
 30
0.0
 11
-459.3609478736
 21
-181.9917861724
 31
0.0
  0
LINE
  5
316
330
1F
100
AcDbEntity
  8
0
  6
Continuous
 62
     7
370
    15
100
AcDbLine
 10
1079.7796276918
 20
-180.9917841458
 30
0.0
 11
1093.631508719
 21
-180.9917841458
 31
0.0
  0
LINE
  5
317
330
1F
100
AcDbEntity
  8
0
  6
Continuous
 62
     7
370
    15
100
AcDbLine
 10
1078.7314204088
 20
-180.9917841458
 30
0.0
 11
1079.7796276918
 21
-180.9917841458
 31
0.0
  0
LINE
  5
318
330
1F
100
AcDbEntity
  8
0
  6
Continuous
 62
     7
370
    15
100
AcDbLine
 10
1080.6390074601
 20
-181.9917861724
 30
0.0
 11
1079.7314671388
 21
-181.9917861724
 31
0.0
  0
LINE
  5
319
330
1F
100
AcDbEntity
  8
0
  6
Continuous
 62
     7
370
    15
100
AcDbLine
 10
1092.631461989
 20
-181.9917861724
 30
0.0
 11
1080.6390074601
 21
-181.9917861724
 31
0.0
  0
LINE
  5
31A
330
1F
100
AcDbEntity
  8
0
  6
Continuous
 62
     7
370
    15
100
AcDbLine
 10
-469.0184379408
 20
-157.4917840192
 30
0.0
 11
-498.6184360871
 21
-157.4917840192
 31
0.0
  0
LINE
  5
31B
330
1F
100
AcDbEntity
  8
0
  6
Continuous
 62
     7
370
    15
100
AcDbLine
 10
-486.3184364924
 20
-154.6329385021
 30
0.0
 11
-483.818437014
 21
-154.6329385021
 31
0.0
  0
LINE
  5
31C
330
1F
100
AcDbEntity
  8
0
  6
Continuous
 62
     7
370
    15
100
AcDbLine
 10
-483.818437014
 20
-154.6329385021
 30
0.0
 11
-481.3184375355
 21
-154.6329385021
 31
0.0
  0
LINE
  5
31D
330
1F
100
AcDbEntity
  8
0
  6
Continuous
 62
     7
370
    15
100
AcDbLine
 10
-481.3184375355
 20
-154.6329385021
 30
0.0
 11
-481.3184375355
 21
-154.6099893169
 31
0.0
  0
SPLINE
  5
31E
330
1F
100
AcDbEntity
  8
0
  6
Continuous
 62
     7
370
    15
100
AcDbSpline
210
0.0
220
0.0
230
1.0
 70
    24
 71
     3
 72
     9
 73
     5
 74
     0
 42
0.000000001
 43
0.00000001
 40
0.0
 40
0.0
 40
0.0
 40
0.0
 40
0.0011935578274655
 40
1.0
 40
1.0
 40
1.0
 40
1.0
 10
-486.3184364924154
 20
-154.6100098059947
 30
0.0
 10
-486.3184364924154
 20
-154.610000637067
 30
0.0
 10
-486.3184364924161
 20
-154.6023186233364
 30
0.0
 10
-486.3184364924157
 20
-154.6176377048332
 30
0.0
 10
-486.3184364924154
 20
-154.6329385021204
 30
0.0
  0
LINE
  5
31F
330
1F
100
AcDbEntity
  8
0
  6
Continuous
 62
     7
370
    15
100
AcDbLine
 10
230.9815911165
 20
-157.4917840192
 30
0.0
 11
201.3815668931
 21
-157.4917840192
 31
0.0
  0
LINE
  5
320
330
1F
100
AcDbEntity
  8
0
  6
Continuous
 62
     7
370
    15
100
AcDbLine
 10
213.681581389
 20
-154.6329385021
 30
0.0
 11
216.1815790048
 21
-154.6329385021
 31
0.0
  0
LINE
  5
321
330
1F
100
AcDbEntity
  8
0
  6
Continuous
 62
     7
370
    15
100
AcDbLine
 10
216.1815790048
 20
-154.6329385021
 30
0.0
 11
218.6815766206
 21
-154.6329385021
 31
0.0
  0
LINE
  5
322
330
1F
100
AcDbEntity
  8
0
  6
Continuous
 62
     7
370
    15
100
AcDbLine
 10
218.6815766206
 20
-154.6329385021
 30
0.0
 11
218.6815766206
 21
-154.6099893169
 31
0.0
  0
SPLINE
  5
323
330
1F
100
AcDbEntity
  8
0
  6
Continuous
 62
     7
370
    15
100
AcDbSpline
210
0.0
220
0.0
230
1.0
 70
    24
 71
     3
 72
     9
 73
     5
 74
     0
 42
0.000000001
 43
0.00000001
 40
0.0
 40
0.0
 40
0.0
 40
0.0
 40
0.0011935578274655
 40
1.0
 40
1.0
 40
1.0
 40
1.0
 10
213.681581388978
 20
-154.6100098059947
 30
0.0
 10
213.681581388978
 20
-154.610000637067
 30
0.0
 10
213.6815813889766
 20
-154.6023186233364
 30
0.0
 10
213.6815813889775
 20
-154.6176377048332
 30
0.0
 10
213.681581388978
 20
-154.6329385021204
 30
0.0
  0
LINE
  5
324
330
1F
100
AcDbEntity
  8
0
  6
Continuous
 62
     7
370
    15
100
AcDbLine
 10
201.1815337053
 20
-185.2917861545
 30
0.0
 11
201.2815502992
 21
-185.2917861545
 31
0.0
  0
LINE
  5
325
330
1F
100
AcDbEntity
  8
0
  6
Continuous
 62
     7
370
    15
100
AcDbLine
 10
231.0815481057
 20
-185.2917861545
 30
0.0
 11
231.1815646997
 21
-185.2917861545
 31
0.0
  0
LINE
  5
326
330
1F
100
AcDbEntity
  8
0
  6
Continuous
 62
     7
370
    15
100
AcDbLine
 10
-498.8184394726
 20
-185.2917861545
 30
0.0
 11
-498.7184377799
 21
-185.2917861545
 31
0.0
  0
LINE
  5
327
330
1F
100
AcDbEntity
  8
0
  6
Continuous
 62
     7
370
    15
100
AcDbLine
 10
-468.9184381107
 20
-185.2917861545
 30
0.0
 11
-468.8184373492
 21
-185.2917861545
 31
0.0
  0
LINE
  5
328
330
1F
100
AcDbEntity
  8
0
  6
Continuous
 62
     7
370
    15
100
AcDbLine
 10
-512.8184380421
 20
-178.991783818
 30
0.0
 11
-454.818437732
 21
-178.991783818
 31
0.0
  0
LINE
  5
329
330
1F
100
AcDbEntity
  8
0
  6
Continuous
 62
     7
370
    15
100
AcDbLine
 10
-512.8184380421
 20
-177.4917845034
 30
0.0
 11
-454.818437732
 21
-177.4917845034
 31
0.0
  0
LINE
  5
32A
330
1F
100
AcDbEntity
  8
0
  6
Continuous
 62
     7
370
    15
100
AcDbLine
 10
-482.3257672081
 20
-159.491784347
 30
0.0
 11
-512.8184380421
 21
-159.491784347
 31
0.0
  0
LINE
  5
32B
330
1F
100
AcDbEntity
  8
0
  6
Continuous
 62
     7
370
    15
100
AcDbLine
 10
-454.818437732
 20
-159.491784347
 30
0.0
 11
-482.3257672081
 21
-159.491784347
 31
0.0
  0
LINE
  5
32C
330
1F
100
AcDbEntity
  8
0
  6
Continuous
 62
     7
370
    15
100
AcDbLine
 10
-482.3257672081
 20
-157.9917841011
 30
0.0
 11
-512.8184380421
 21
-157.9917841011
 31
0.0
  0
LINE
  5
32D
330
1F
100
AcDbEntity
  8
0
  6
Continuous
 62
     7
370
    15
100
AcDbLine
 10
-454.818437732
 20
-157.9917841011
 30
0.0
 11
-482.3257672081
 21
-157.9917841011
 31
0.0
  0
LINE
  5
32E
330
1F
100
AcDbEntity
  8
0
  6
Continuous
 62
     7
370
    15
100
AcDbLine
 10
187.1815351358
 20
-178.991783818
 30
0.0
 11
245.1815632692
 21
-178.991783818
 31
0.0
  0
LINE
  5
32F
330
1F
100
AcDbEntity
  8
0
  6
Continuous
 62
     7
370
    15
100
AcDbLine
 10
187.1815351358
 20
-177.4917845034
 30
0.0
 11
245.1815632692
 21
-177.4917845034
 31
0.0
  0
LINE
  5
330
330
1F
100
AcDbEntity
  8
0
  6
Continuous
 62
     7
370
    15
100
AcDbLine
 10
217.6742581239
 20
-159.491784347
 30
0.0
 11
187.1815351358
 21
-159.491784347
 31
0.0
  0
LINE
  5
331
330
1F
100
AcDbEntity
  8
0
  6
Continuous
 62
     7
370
    15
100
AcDbLine
 10
245.1815632692
 20
-159.491784347
 30
0.0
 11
217.6742581239
 21
-159.491784347
 31
0.0
  0
LINE
  5
332
330
1F
100
AcDbEntity
  8
0
  6
Continuous
 62
     7
370
    15
100
AcDbLine
 10
217.6742581239
 20
-157.9917841011
 30
0.0
 11
187.1815351358
 21
-157.9917841011
 31
0.0
  0
LINE
  5
333
330
1F
100
AcDbEntity
  8
0
  6
Continuous
 62
     7
370
    15
100
AcDbLine
 10
245.1815632692
 20
-157.9917841011
 30
0.0
 11
217.6742581239
 21
-157.9917841011
 31
0.0
  0
LINE
  5
334
330
1F
100
AcDbEntity
  8
0
  6
Continuous
 62
     7
370
    15
100
AcDbLine
 10
-454.818437732
 20
-176.5234586203
 30
0.0
 11
-512.8184380421
 21
-176.5234586203
 31
0.0
  0
LINE
  5
335
330
1F
100
AcDbEntity
  8
0
  6
Continuous
 62
     7
370
    15
100
AcDbLine
 10
-494.6464086363
 20
-160.5122130716
 30
0.0
 11
-454.818437732
 21
-160.5122130716
 31
0.0
  0
LINE
  5
336
330
1F
100
AcDbEntity
  8
0
  6
Continuous
 62
     7
370
    15
100
AcDbLine
 10
-512.8184380421
 20
-160.5122130716
 30
0.0
 11
-494.6464086363
 21
-160.5122130716
 31
0.0
  0
LINE
  5
337
330
1F
100
AcDbEntity
  8
0
  6
Continuous
 62
     7
370
    15
100
AcDbLine
 10
-512.8184380421
 20
-159.491784347
 30
0.0
 11
-454.818437732
 21
-159.491784347
 31
0.0
  0
LINE
  5
338
330
1F
100
AcDbEntity
  8
0
  6
Continuous
 62
     7
370
    15
100
AcDbLine
 10
187.1815351358
 20
-159.491784347
 30
0.0
 11
245.1815632692
 21
-159.491784347
 31
0.0
  0
LINE
  5
339
330
1F
100
AcDbEntity
  8
0
  6
Continuous
 62
     7
370
    15
100
AcDbLine
 10
205.353620421
 20
-160.5122130716
 30
0.0
 11
245.1815632692
 21
-160.5122130716
 31
0.0
  0
LINE
  5
33A
330
1F
100
AcDbEntity
  8
0
  6
Continuous
 62
     7
370
    15
100
AcDbLine
 10
187.1815351358
 20
-160.5122130716
 30
0.0
 11
205.353620421
 21
-160.5122130716
 31
0.0
  0
LINE
  5
33B
330
1F
100
AcDbEntity
  8
0
  6
Continuous
 62
     7
370
    15
100
AcDbLine
 10
245.1815632692
 20
-176.5234586203
 30
0.0
 11
187.1815351358
 21
-176.5234586203
 31
0.0
  0
LINE
  5
33C
330
1F
100
AcDbEntity
  8
0
  6
Continuous
 62
     7
370
    15
100
AcDbLine
 10
-498.5184381196
 20
-179.4917848313
 30
0.0
 11
-469.1184377709
 21
-179.4917848313
 31
0.0
  0
LINE
  5
33D
330
1F
100
AcDbEntity
  8
0
  6
Continuous
 62
     7
370
    15
100
AcDbLine
 10
-468.8184373492
 20
-179.7917861843
 30
0.0
 11
-498.8184394726
 21
-179.7917861843
 31
0.0
  0
LINE
  5
33E
330
1F
100
AcDbEntity
  8
0
  6
Continuous
 62
     7
370
    15
100
AcDbLine
 10
-498.8184394726
 20
-185.1917844617
 30
0.0
 11
-468.8184373492
 21
-185.1917844617
 31
0.0
  0
LINE
  5
33F
330
1F
100
AcDbEntity
  8
0
  6
Continuous
 62
     7
370
    15
100
AcDbLine
 10
201.4815834871
 20
-179.4917848313
 30
0.0
 11
230.8815745225
 21
-179.4917848313
 31
0.0
  0
LINE
  5
340
330
1F
100
AcDbEntity
  8
0
  6
Continuous
 62
     7
370
    15
100
AcDbLine
 10
231.1815646997
 20
-179.7917861843
 30
0.0
 11
201.1815337053
 21
-179.7917861843
 31
0.0
  0
LINE
  5
341
330
1F
100
AcDbEntity
  8
0
  6
Continuous
 62
     7
370
    15
100
AcDbLine
 10
201.1815337053
 20
-185.1917844617
 30
0.0
 11
231.1815646997
 21
-185.1917844617
 31
0.0
  0
LINE
  5
342
330
1F
100
AcDbEntity
  8
0
  6
Continuous
 62
     7
370
    15
100
AcDbLine
 10
201.1815337053
 20
-191.2917834127
 30
0.0
 11
231.1815646997
 21
-191.2917834127
 31
0.0
  0
LINE
  5
343
330
1F
100
AcDbEntity
  8
0
  6
Continuous
 62
     7
370
    15
100
AcDbLine
 10
201.1815337053
 20
-185.691785475
 30
0.0
 11
201.1815337053
 21
-191.2917834127
 31
0.0
  0
LINE
  5
344
330
1F
100
AcDbEntity
  8
0
  6
Continuous
 62
     7
370
    15
100
AcDbLine
 10
231.1815646997
 20
-185.691785475
 30
0.0
 11
201.1815337053
 21
-185.691785475
 31
0.0
  0
LINE
  5
345
330
1F
100
AcDbEntity
  8
0
  6
Continuous
 62
     7
370
    15
100
AcDbLine
 10
231.1815646997
 20
-185.691785475
 30
0.0
 11
231.1815646997
 21
-191.2917834127
 31
0.0
  0
LINE
  5
346
330
1F
100
AcDbEntity
  8
0
  6
Continuous
 62
     7
370
    15
100
AcDbLine
 10
201.3815668931
 20
-185.4917858147
 30
0.0
 11
230.9815911165
 21
-185.4917858147
 31
0.0
  0
LINE
  5
347
330
1F
100
AcDbEntity
  8
0
  6
Continuous
 62
     7
370
    15
100
AcDbLine
 10
230.9815911165
 20
-185.4917858147
 30
0.0
 11
231.1815646997
 21
-185.691785475
 31
0.0
  0
LINE
  5
348
330
1F
100
AcDbEntity
  8
0
  6
Continuous
 62
     7
370
    15
100
AcDbLine
 10
201.3815668931
 20
-185.4917858147
 30
0.0
 11
201.1815337053
 21
-185.691785475
 31
0.0
  0
LINE
  5
349
330
1F
100
AcDbEntity
  8
0
  6
Continuous
 62
     7
370
    15
100
AcDbLine
 10
230.9815911165
 20
-191.4917830729
 30
0.0
 11
201.3815668931
 21
-191.4917830729
 31
0.0
  0
LINE
  5
34A
330
1F
100
AcDbEntity
  8
0
  6
Continuous
 62
     7
370
    15
100
AcDbLine
 10
201.3815668931
 20
-191.4917830729
 30
0.0
 11
201.1815337053
 21
-191.2917834127
 31
0.0
  0
LINE
  5
34B
330
1F
100
AcDbEntity
  8
0
  6
Continuous
 62
     7
370
    15
100
AcDbLine
 10
230.9815911165
 20
-191.4917830729
 30
0.0
 11
231.1815646997
 21
-191.2917834127
 31
0.0
  0
LINE
  5
34C
330
1F
100
AcDbEntity
  8
0
  6
Continuous
 62
     7
370
    15
100
AcDbLine
 10
-498.8184394726
 20
-191.2917834127
 30
0.0
 11
-468.8184373492
 21
-191.2917834127
 31
0.0
  0
LINE
  5
34D
330
1F
100
AcDbEntity
  8
0
  6
Continuous
 62
     7
370
    15
100
AcDbLine
 10
-498.8184394726
 20
-185.691785475
 30
0.0
 11
-498.8184394726
 21
-191.2917834127
 31
0.0
  0
LINE
  5
34E
330
1F
100
AcDbEntity
  8
0
  6
Continuous
 62
     7
370
    15
100
AcDbLine
 10
-468.8184373492
 20
-185.691785475
 30
0.0
 11
-498.8184394726
 21
-185.691785475
 31
0.0
  0
LINE
  5
34F
330
1F
100
AcDbEntity
  8
0
  6
Continuous
 62
     7
370
    15
100
AcDbLine
 10
-468.8184373492
 20
-185.691785475
 30
0.0
 11
-468.8184373492
 21
-191.2917834127
 31
0.0
  0
LINE
  5
350
330
1F
100
AcDbEntity
  8
0
  6
Continuous
 62
     7
370
    15
100
AcDbLine
 10
-498.6184360871
 20
-185.4917858147
 30
0.0
 11
-469.0184379408
 21
-185.4917858147
 31
0.0
  0
LINE
  5
351
330
1F
100
AcDbEntity
  8
0
  6
Continuous
 62
     7
370
    15
100
AcDbLine
 10
-469.0184379408
 20
-185.4917858147
 30
0.0
 11
-468.8184373492
 21
-185.691785475
 31
0.0
  0
LINE
  5
352
330
1F
100
AcDbEntity
  8
0
  6
Continuous
 62
     7
370
    15
100
AcDbLine
 10
-498.6184360871
 20
-185.4917858147
 30
0.0
 11
-498.8184394726
 21
-185.691785475
 31
0.0
  0
LINE
  5
353
330
1F
100
AcDbEntity
  8
0
  6
Continuous
 62
     7
370
    15
100
AcDbLine
 10
-469.0184379408
 20
-191.4917830729
 30
0.0
 11
-498.6184360871
 21
-191.4917830729
 31
0.0
  0
LINE
  5
354
330
1F
100
AcDbEntity
  8
0
  6
Continuous
 62
     7
370
    15
100
AcDbLine
 10
-498.6184360871
 20
-191.4917830729
 30
0.0
 11
-498.8184394726
 21
-191.2917834127
 31
0.0
  0
LINE
  5
355
330
1F
100
AcDbEntity
  8
0
  6
Continuous
 62
     7
370
    15
100
AcDbLine
 10
-469.0184379408
 20
-191.4917830729
 30
0.0
 11
-468.8184373492
 21
-191.2917834127
 31
0.0
  0
SPLINE
  5
356
330
1F
100
AcDbEntity
  8
0
  6
Continuous
 62
     7
370
    15
100
AcDbSpline
210
0.0
220
0.0
230
1.0
 70
     8
 71
     3
 72
     9
 73
     5
 74
     0
 42
0.000000001
 43
0.00000001
 40
0.0
 40
0.0
 40
0.0
 40
0.0
 40
0.1853562745398416
 40
1.0
 40
1.0
 40
1.0
 40
1.0
 10
-522.553381551238
 20
-195.9553327762956
 30
0.0
 10
-522.538019571966
 20
-195.9576377801754
 30
0.0
 10
-522.4551414535418
 20
-195.9700733121562
 30
0.0
 10
-522.3710814298162
 20
-195.9510390227735
 30
0.0
 10
-522.3026024589261
 20
-195.9355328583592
 30
0.0
  0
LINE
  5
357
330
1F
100
AcDbEntity
  8
0
  6
Continuous
 62
     7
370
    15
100
AcDbLine
 10
-516.9269191513
 20
-195.9355328584
 30
0.0
 11
-517.0834558496
 21
-195.955329051
 31
0.0
  0
SPLINE
  5
358
330
1F
100
AcDbEntity
  8
0
  6
Continuous
 62
     7
370
    15
100
AcDbSpline
210
0.0
220
0.0
230
1.0
 70
     8
 71
     3
 72
     9
 73
     5
 74
     0
 42
0.000000001
 43
0.00000001
 40
0.0
 40
0.0
 40
0.0
 40
0.0
 40
0.499999654431701
 40
0.9999999999999999
 40
0.9999999999999999
 40
0.9999999999999999
 40
0.9999999999999999
 10
-519.4110842833242
 20
-195.9355328583592
 30
0.0
 10
-518.9967567325111
 20
-195.9483497137256
 30
0.0
 10
-518.1681010581707
 20
-195.9739834421748
 30
0.0
 10
-517.3406466442038
 20
-195.9483497255366
 30
0.0
 10
-516.9269191512784
 20
-195.9355328583592
 30
0.0
  0
SPLINE
  5
359
330
1F
100
AcDbEntity
  8
0
  6
Continuous
 62
     7
370
    15
100
AcDbSpline
210
0.0
220
0.0
230
1.0
 70
     8
 71
     3
 72
     9
 73
     5
 74
     0
 42
0.000000001
 43
0.00000001
 40
0.0
 40
0.0
 40
0.0
 40
0.0
 40
0.5000006406973072
 40
1.0
 40
1.0
 40
1.0
 40
1.0
 10
-522.3026024589261
 20
-195.9355328583592
 30
0.0
 10
-521.8208711990789
 20
-195.94834973058
 30
0.0
 10
-520.857409913958
 20
-195.9739834421749
 30
0.0
 10
-519.8931924150212
 20
-195.9483497086821
 30
0.0
 10
-519.4110842833242
 20
-195.9355328583592
 30
0.0
  0
SPLINE
  5
35A
330
1F
100
AcDbEntity
  8
0
  6
Continuous
 62
     7
370
    15
100
AcDbSpline
210
0.0
220
0.0
230
1.0
 70
     8
 71
     3
 72
     9
 73
     5
 74
     0
 42
0.000000001
 43
0.00000001
 40
0.0
 40
0.0
 40
0.0
 40
0.0
 40
0.1853578109971209
 40
0.9999999999999999
 40
0.9999999999999999
 40
0.9999999999999999
 40
0.9999999999999999
 10
1137.446644674806
 20
-195.9553327762956
 30
0.0
 10
1137.462009981482
 20
-195.9576377849963
 30
0.0
 10
1137.544905364166
 20
-195.9700732399055
 30
0.0
 10
1137.628908947621
 20
-195.9510389742218
 30
0.0
 10
1137.697341810731
 20
-195.9355328583592
 30
0.0
  0
LINE
  5
35B
330
1F
100
AcDbEntity
  8
0
  6
Continuous
 62
     7
370
    15
100
AcDbLine
 10
1143.073084723
 20
-195.9355328584
 30
0.0
 11
1142.9165629258
 21
-195.955329051
 31
0.0
  0
SPLINE
  5
35C
330
1F
100
AcDbEntity
  8
0
  6
Continuous
 62
     7
370
    15
100
AcDbSpline
210
0.0
220
0.0
230
1.0
 70
     8
 71
     3
 72
     9
 73
     5
 74
     0
 42
0.000000001
 43
0.00000001
 40
0.0
 40
0.0
 40
0.0
 40
0.0
 40
0.5000138195353059
 40
1.0
 40
1.0
 40
1.0
 40
1.0
 10
1140.588882338075
 20
-195.9355328583592
 30
0.0
 10
1141.003238178417
 20
-195.9483499558017
 30
0.0
 10
1141.831926954912
 20
-195.9739834422009
 30
0.0
 10
1142.659373090268
 20
-195.9483494834735
 30
0.0
 10
1143.073084723023
 20
-195.9355328583592
 30
0.0
  0
SPLINE
  5
35D
330
1F
100
AcDbEntity
  8
0
  6
Continuous
 62
     7
370
    15
100
AcDbSpline
210
0.0
220
0.0
230
1.0
 70
     8
 71
     3
 72
     9
 73
     5
 74
     0
 42
0.000000001
 43
0.00000001
 40
0.0
 40
0.0
 40
0.0
 40
0.0
 40
0.5000061349031862
 40
1.0
 40
1.0
 40
1.0
 40
1.0
 10
1137.697341810731
 20
-195.9355328583592
 30
0.0
 10
1138.179083459932
 20
-195.9483498244726
 30
0.0
 10
1139.142554936725
 20
-195.97398344218
 30
0.0
 10
1140.106777147898
 20
-195.9483496147921
 30
0.0
 10
1140.588882338075
 20
-195.9355328583592
 30
0.0
  0
LINE
  5
35E
330
1F
100
AcDbEntity
  8
0
  6
Continuous
 62
     7
370
    15
100
AcDbLine
 10
1160.1815251222
 20
-185.091782769
 30
0.0
 11
1120.1815632692
 21
-185.091782769
 31
0.0
  0
LINE
  5
35F
330
1F
100
AcDbEntity
  8
0
  6
Continuous
 62
     7
370
    15
100
AcDbLine
 10
1160.1815251222
 20
-193.0917840803
 30
0.0
 11
1120.1815632692
 21
-193.0917840803
 31
0.0
  0
LINE
  5
360
330
1F
100
AcDbEntity
  8
0
  6
Continuous
 62
     7
370
    15
100
AcDbLine
 10
-499.8184377739
 20
-193.0917840803
 30
0.0
 11
-539.8184406051
 21
-193.0917840803
 31
0.0
  0
LINE
  5
361
330
1F
100
AcDbEntity
  8
0
  6
Continuous
 62
     7
370
    15
100
AcDbLine
 10
-499.8184377739
 20
-185.091782769
 30
0.0
 11
-539.8184406051
 21
-185.091782769
 31
0.0
  0
LINE
  5
362
330
1F
100
AcDbEntity
  8
0
  6
Continuous
 62
     7
370
    15
100
AcDbLine
 10
1156.1815766206
 20
-154.2917843328
 30
0.0
 11
1124.1815117708
 21
-154.2917843328
 31
0.0
  0
LINE
  5
363
330
1F
100
AcDbEntity
  8
0
  6
Continuous
 62
     7
370
    15
100
AcDbLine
 10
1125.981572043
 20
-152.4917841309
 30
0.0
 11
1154.3815163484
 21
-152.4917841309
 31
0.0
  0
SPLINE
  5
364
330
1F
100
AcDbEntity
  8
0
  6
Continuous
 62
     7
370
    15
100
AcDbSpline
210
0.0
220
0.0
230
1.0
 70
     8
 71
     3
 72
    22
 73
    18
 74
     0
 42
0.000000001
 43
0.00000001
 40
0.0
 40
0.0
 40
0.0
 40
0.0
 40
0.0424483129231451
 40
0.122635997659651
 40
0.2089109042218199
 40
0.3120083521144075
 40
0.3621939770825983
 40
0.4135781900809318
 40
0.4821781084759386
 40
0.5511347554682335
 40
0.6347837445692719
 40
0.694471740481921
 40
0.7558514101867422
 40
0.8161948066057849
 40
0.8787130996216448
 40
0.962971452424275
 40
1.0
 40
1.0
 40
1.0
 40
1.0
 10
1156.080606352357
 20
-180.9634011590356
 30
0.0
 10
1156.100626855098
 20
-180.9888681810512
 30
0.0
 10
1156.158467418321
 20
-181.0624441004985
 30
0.0
 10
1155.441990661111
 20
-180.1491330607279
 30
0.0
 10
1154.109861592436
 20
-178.3658361041244
 30
0.0
 10
1152.597175034356
 20
-176.125250821498
 30
0.0
 10
1151.385332397955
 20
-173.8825856757732
 30
0.0
 10
1150.513781870033
 20
-171.817714796121
 30
0.0
 10
1149.925065250087
 20
-169.2461523439805
 30
0.0
 10
1150.167784494841
 20
-166.1121304673573
 30
0.0
 10
1151.19959292361
 20
-163.4231527767079
 30
0.0
 10
1152.421535143233
 20
-161.1903637196827
 30
0.0
 10
1153.539068106662
 20
-159.4560021842678
 30
0.0
 10
1154.594856327369
 20
-157.9669596279938
 30
0.0
 10
1155.570915502509
 20
-156.6690272349586
 30
0.0
 10
1156.117034017016
 20
-155.9737704246479
 30
0.0
 10
1156.166480690938
 20
-155.9109598376796
 30
0.0
 10
1156.181576620606
 20
-155.8917839431638
 30
0.0
  0
SPLINE
  5
365
330
1F
100
AcDbEntity
  8
0
  6
Continuous
 62
     7
370
    15
100
AcDbSpline
210
0.0
220
0.0
230
1.0
 70
     8
 71
     3
 72
    22
 73
    18
 74
     0
 42
0.000000001
 43
0.00000001
 40
0.0
 40
0.0
 40
0.0
 40
0.0
 40
0.0870778385886264
 40
0.1738038175137036
 40
0.2313489854531642
 40
0.2905523962782731
 40
0.3488898106234239
 40
0.4089779648114606
 40
0.4779438068960636
 40
0.5473138269623083
 40
0.6291800180321965
 40
0.6881379187770562
 40
0.7487575199215338
 40
0.8086816886840273
 40
0.8706636095630121
 40
0.956411402655799
 40
1.0
 40
1.0
 40
1.0
 40
1.0
 10
1124.181511770753
 20
-155.8917839431638
 30
0.0
 10
1124.264153762649
 20
-155.9959198194578
 30
0.0
 10
1124.429103810922
 20
-156.2037707851387
 30
0.0
 10
1125.475678451558
 20
-157.5651777942747
 30
0.0
 10
1126.602444786632
 20
-159.1359892657219
 30
0.0
 10
1127.67338696905
 20
-160.7563041861301
 30
0.0
 10
1128.753914108317
 20
-162.6347181880334
 30
0.0
 10
1129.758761224613
 20
-164.8688084247755
 30
0.0
 10
1130.421997205701
 20
-167.5491063656297
 30
0.0
 10
1130.239823923949
 20
-170.6772642697477
 30
0.0
 10
1129.252828983094
 20
-173.3648472332889
 30
0.0
 10
1128.06223188368
 20
-175.5902932238903
 30
0.0
 10
1126.955513990258
 20
-177.3332707342385
 30
0.0
 10
1125.8907858624
 20
-178.8489154442682
 30
0.0
 10
1124.896189938366
 20
-180.1804281552824
 30
0.0
 10
1124.207825192668
 20
-181.0587428695967
 30
0.0
 10
1124.263663548652
 20
-180.9874336108234
 30
0.0
 10
1124.282482039002
 20
-180.9634011590356
 30
0.0
  0
LINE
  5
366
330
1F
100
AcDbEntity
  8
0
  6
Continuous
 62
     7
370
    15
100
AcDbLine
 10
-503.8184384296
 20
-154.2917843328
 30
0.0
 11
-535.8184399495
 21
-154.2917843328
 31
0.0
  0
LINE
  5
367
330
1F
100
AcDbEntity
  8
0
  6
Continuous
 62
     7
370
    15
100
AcDbLine
 10
-534.0184392819
 20
-152.4917841309
 30
0.0
 11
-505.6184390971
 21
-152.4917841309
 31
0.0
  0
SPLINE
  5
368
330
1F
100
AcDbEntity
  8
0
  6
Continuous
 62
     7
370
    15
100
AcDbSpline
210
0.0
220
0.0
230
1.0
 70
     8
 71
     3
 72
    10
 73
     6
 74
     0
 42
0.000000001
 43
0.00000001
 40
0.0
 40
0.0
 40
0.0
 40
0.0
 40
0.2388890012728406
 40
0.6901639007513944
 40
1.0
 40
1.0
 40
1.0
 40
1.0
 10
-503.9193416425904
 20
-180.9634011590356
 30
0.0
 10
-503.9003284159525
 20
-180.9871894668879
 30
0.0
 10
-503.8453981236726
 20
-181.0559152401638
 30
0.0
 10
-504.4238227110187
 20
-180.3329740699431
 30
0.0
 10
-505.1197601692356
 20
-179.3798040636248
 30
0.0
 10
-505.403065163823
 20
-178.991783817994
 30
0.0
  0
SPLINE
  5
369
330
1F
100
AcDbEntity
  8
0
  6
Continuous
 62
     7
370
    15
100
AcDbSpline
210
0.0
220
0.0
230
1.0
 70
     8
 71
     3
 72
    15
 73
    11
 74
     0
 42
0.000000001
 43
0.00000001
 40
0.0
 40
0.0
 40
0.0
 40
0.0
 40
0.104800721570361
 40
0.2106231810304134
 40
0.318972010955181
 40
0.4636220356843684
 40
0.6090243581022259
 40
0.7854069447619021
 40
0.9112648232571959
 40
1.0
 40
1.0
 40
1.0
 40
1.0
 10
-506.8184370586595
 20
-176.8932495617742
 30
0.0
 10
-507.1155227153201
 20
-176.4553237411371
 30
0.0
 10
-507.7125904177819
 20
-175.5752026120472
 30
0.0
 10
-508.6164379011269
 20
-173.8730280486373
 30
0.0
 10
-509.4855533274765
 20
-171.8211861355303
 30
0.0
 10
-510.0751580951497
 20
-169.2456057952351
 30
0.0
 10
-509.831902368228
 20
-166.1103597074338
 30
0.0
 10
-508.8015740557263
 20
-163.4317232766283
 30
0.0
 10
-507.691160678325
 20
-161.381460713783
 30
0.0
 10
-507.0737422906615
 20
-160.4353469714669
 30
0.0
 10
-506.8184370586595
 20
-160.044124757635
 30
0.0
  0
SPLINE
  5
36A
330
1F
100
AcDbEntity
  8
0
  6
Continuous
 62
     7
370
    15
100
AcDbSpline
210
0.0
220
0.0
230
1.0
 70
     8
 71
     3
 72
    10
 73
     6
 74
     0
 42
0.000000001
 43
0.00000001
 40
0.0
 40
0.0
 40
0.0
 40
0.0
 40
0.3310561289432197
 40
0.7957734787544493
 40
1.0
 40
1.0
 40
1.0
 40
1.0
 10
-505.4131197223386
 20
-157.9917841011161
 30
0.0
 10
-505.1178007395676
 20
-157.593331837465
 30
0.0
 10
-504.4079301354128
 20
-156.6355554477772
 30
0.0
 10
-503.8844785691297
 20
-155.9764095701254
 30
0.0
 10
-503.8338846106147
 20
-155.9115770987208
 30
0.0
 10
-503.8184384295663
 20
-155.8917839431638
 30
0.0
  0
SPLINE
  5
36B
330
1F
100
AcDbEntity
  8
0
  6
Continuous
 62
     7
370
    15
100
AcDbSpline
210
0.0
220
0.0
230
1.0
 70
     8
 71
     3
 72
    22
 73
    18
 74
     0
 42
0.000000001
 43
0.00000001
 40
0.0
 40
0.0
 40
0.0
 40
0.0
 40
0.0870777515852964
 40
0.173803862499737
 40
0.231348164652687
 40
0.2905520976836643
 40
0.3488893402450803
 40
0.4089778077117788
 40
0.4779436667543061
 40
0.5473137020825267
 40
0.6291799217720504
 40
0.6881376553566357
 40
0.7487576271729274
 40
0.8086819239954529
 40
0.8706630853230071
 40
0.9564114177144288
 40
0.9999999999999999
 40
0.9999999999999999
 40
0.9999999999999999
 40
0.9999999999999999
 10
-535.8184399494847
 20
-155.8917839431638
 30
0.0
 10
-535.7358145525268
 20
-155.9959216918971
 30
0.0
 10
-535.5708974196145
 20
-156.203776656367
 30
0.0
 10
-534.5242230214488
 20
-157.5651567469787
 30
0.0
 10
-533.3976331966197
 20
-159.1360142253766
 30
0.0
 10
-532.3265761587459
 20
-160.7562871315747
 30
0.0
 10
-531.246107889699
 20
-162.6347313576354
 30
0.0
 10
-530.2411938666452
 20
-164.8687988161906
 30
0.0
 10
-529.577954481038
 20
-167.5491076320674
 30
0.0
 10
-529.7601730178918
 20
-170.6772650734003
 30
0.0
 10
-530.7471747869716
 20
-173.3648406858264
 30
0.0
 10
-531.9377415419535
 20
-175.5903040778865
 30
0.0
 10
-533.0445015670873
 20
-177.3332666813099
 30
0.0
 10
-534.1092788086308
 20
-178.8489034530439
 30
0.0
 10
-535.1036829738491
 20
-180.180444834395
 30
0.0
 10
-535.792275007458
 20
-181.0587406108264
 30
0.0
 10
-535.736375689261
 20
-180.9874329623985
 30
0.0
 10
-535.7175367364606
 20
-180.9634011590356
 30
0.0
  0
LINE
  5
36C
330
1F
100
AcDbEntity
  8
0
  6
Continuous
 62
     7
370
    15
100
AcDbLine
 10
576.8481520524
 20
-117.9917849952
 30
0.0
 11
568.84813584
 21
-117.9917849952
 31
0.0
  0
LINE
  5
36D
330
1F
100
AcDbEntity
  8
0
  6
Continuous
 62
     7
370
    15
100
AcDbLine
 10
571.8481568208
 20
-107.9917852187
 30
0.0
 11
573.8481310716
 21
-107.9917852187
 31
0.0
  0
LINE
  5
36E
330
1F
100
AcDbEntity
  8
0
  6
Continuous
 62
     7
370
    15
100
AcDbLine
 10
1090.1814726701
 20
-117.9917849952
 30
0.0
 11
1082.1814564576
 21
-117.9917849952
 31
0.0
  0
LINE
  5
36F
330
1F
100
AcDbEntity
  8
0
  6
Continuous
 62
     7
370
    15
100
AcDbLine
 10
1085.1814774385
 20
-107.9917852187
 30
0.0
 11
1087.1814516893
 21
-107.9917852187
 31
0.0
  0
LINE
  5
370
330
1F
100
AcDbEntity
  8
0
  6
Continuous
 62
     7
370
    15
100
AcDbLine
 10
63.5148910394
 20
-117.9917849952
 30
0.0
 11
55.5148748269
 21
-117.9917849952
 31
0.0
  0
LINE
  5
371
330
1F
100
AcDbEntity
  8
0
  6
Continuous
 62
     7
370
    15
100
AcDbLine
 10
58.5148362031
 20
-107.9917852187
 30
0.0
 11
60.5148700586
 21
-107.9917852187
 31
0.0
  0
LINE
  5
372
330
1F
100
AcDbEntity
  8
0
  6
Continuous
 62
     7
370
    15
100
AcDbLine
 10
-449.8184374945
 20
-117.9917849952
 30
0.0
 11
-457.8184378745
 21
-117.9917849952
 31
0.0
  0
LINE
  5
373
330
1F
100
AcDbEntity
  8
0
  6
Continuous
 62
     7
370
    15
100
AcDbLine
 10
-454.818437732
 20
-107.9917852187
 30
0.0
 11
-452.818437637
 21
-107.9917852187
 31
0.0
  0
SPLINE
  5
374
330
1F
100
AcDbEntity
  8
0
  6
Continuous
 62
     7
370
    15
100
AcDbSpline
210
0.0
220
0.0
230
1.0
 70
     8
 71
     3
 72
    13
 73
     9
 74
     0
 42
0.000000001
 43
0.00000001
 40
0.0
 40
0.0
 40
0.0
 40
0.0
 40
0.1560825127169452
 40
0.3239021422192146
 40
0.509284368129192
 40
0.7186236565981039
 40
0.8826099208394884
 40
1.0
 40
1.0
 40
1.0
 40
1.0
 10
-446.346298366966
 20
-156.0083203369254
 30
0.0
 10
-446.38960544965
 20
-156.0348092695899
 30
0.0
 10
-446.4794762276792
 20
-156.0897790537495
 30
0.0
 10
-447.4176985256601
 20
-156.6319962383434
 30
0.0
 10
-448.9468201995181
 20
-157.4115358467256
 30
0.0
 10
-450.9800635412306
 20
-158.1634137765001
 30
0.0
 10
-453.0875711524686
 20
-158.5553135131822
 30
0.0
 10
-454.3088999342079
 20
-158.4426714835181
 30
0.0
 10
-454.8184377320057
 20
-158.3956772813076
 30
0.0
  0
SPLINE
  5
375
330
1F
100
AcDbEntity
  8
0
  6
Continuous
 62
     7
370
    15
100
AcDbSpline
210
0.0
220
0.0
230
1.0
 70
     8
 71
     3
 72
    12
 73
     8
 74
     0
 42
0.000000001
 43
0.00000001
 40
0.0
 40
0.0
 40
0.0
 40
0.0
 40
0.0455999212015249
 40
0.3148709915704421
 40
0.6279057700908355
 40
0.9305267151704139
 40
1.0
 40
1.0
 40
1.0
 40
1.0
 10
-456.937934545981
 20
-157.9917841011161
 30
0.0
 10
-457.0612046636311
 20
-157.9626309033962
 30
0.0
 10
-457.9123943839812
 20
-157.7613258126933
 30
0.0
 10
-459.2733479044543
 20
-157.107252352111
 30
0.0
 10
-460.7479989357625
 20
-156.344294408843
 30
0.0
 10
-461.2854708586722
 20
-156.0110685865995
 30
0.0
 10
-461.3132507629573
 20
-155.9948187018641
 30
0.0
 10
-461.3184375168702
 20
-155.9917847046131
 30
0.0
  0
LWPOLYLINE
  5
376
330
1F
100
AcDbEntity
  8
0
  6
Continuous
 62
     7
370
    15
100
AcDbPolyline
 90
       13
 70
   128
 43
0.0
 10
580.3203610292
 20
-156.0083203369
 10
580.0726441255
 20
-156.1550995687
 10
579.2113570085
 20
-156.6389002257
 10
577.7046707979
 20
-157.3748546073
 10
575.4445818773
 20
-158.1602240333
 10
573.3745125642
 20
-158.4779410043
 10
571.2361363282
 20
-158.3626954237
 10
569.3624047151
 20
-157.9016674662
 10
567.5505427232
 20
-157.1751911545
 10
566.0415915361
 20
-156.3951302671
 10
565.372946631
 20
-156.0066290551
 10
565.3481510988
 20
-155.9917847046
 10
565.3481510988
 20
-155.9917847046
  0
LWPOLYLINE
  5
377
330
1F
100
AcDbEntity
  8
0
  6
Continuous
 62
     7
370
    15
100
AcDbPolyline
 90
       13
 70
   128
 43
0.0
 10
1093.6535624376
 20
-156.0083203369
 10
1093.4059647432
 20
-156.1550995687
 10
1092.5446776262
 20
-156.6389002257
 10
1091.0379914155
 20
-157.3748546073
 10
1088.7777832856
 20
-158.1602240333
 10
1086.7078331819
 20
-158.4779410043
 10
1084.5694569459
 20
-158.3626954237
 10
1082.6957253328
 20
-157.9016674662
 10
1080.8837441316
 20
-157.1751911545
 10
1079.3749121537
 20
-156.3951302671
 10
1078.7062672487
 20
-156.0066290551
 10
1078.6814717164
 20
-155.9917847046
 10
1078.6814717164
 20
-155.9917847046
  0
LWPOLYLINE
  5
378
330
1F
100
AcDbEntity
  8
0
  6
Continuous
 62
     7
370
    15
100
AcDbPolyline
 90
       13
 70
   128
 43
0.0
 10
66.9869808069
 20
-156.0083203369
 10
66.7393831125
 20
-156.1550995687
 10
65.8780959955
 20
-156.6389002257
 10
64.3714097848
 20
-157.3748546073
 10
62.1112612596
 20
-158.1602240333
 10
60.0412515512
 20
-158.4779410043
 10
57.9028753152
 20
-158.3626954237
 10
56.0290840974
 20
-157.9016674662
 10
54.2172221055
 20
-157.1751911545
 10
52.708330523
 20
-156.3951302671
 10
52.0396260133
 20
-156.0066290551
 10
52.0148900857
 20
-155.9917847046
 10
52.0148900857
 20
-155.9917847046
  0
LINE
  5
379
330
1F
100
AcDbEntity
  8
0
  6
Continuous
 62
     7
370
    15
100
AcDbLine
 10
-423.8184383551
 20
-147.9917843246
 30
0.0
 11
-483.818437014
 21
-147.9917843246
 31
0.0
  0
LINE
  5
37A
330
1F
100
AcDbEntity
  8
0
  6
Continuous
 62
     7
370
    15
100
AcDbLine
 10
-483.818437014
 20
-149.9917844196
 30
0.0
 11
-423.8184383551
 21
-149.9917844196
 31
0.0
  0
LINE
  5
37B
330
1F
100
AcDbEntity
  8
0
  6
Continuous
 62
     7
370
    15
100
AcDbLine
 10
-438.8184380198
 20
-151.9917845146
 30
0.0
 11
-468.8184373492
 21
-151.9917845146
 31
0.0
  0
LINE
  5
37C
330
1F
100
AcDbEntity
  8
0
  6
Continuous
 62
     7
370
    15
100
AcDbLine
 10
542.8481725564
 20
-149.9917844196
 30
0.0
 11
602.8481749406
 21
-149.9917844196
 31
0.0
  0
LINE
  5
37D
330
1F
100
AcDbEntity
  8
0
  6
Continuous
 62
     7
370
    15
100
AcDbLine
 10
602.8481749406
 20
-147.9917843246
 30
0.0
 11
542.8481725564
 21
-147.9917843246
 31
0.0
  0
LINE
  5
37E
330
1F
100
AcDbEntity
  8
0
  6
Continuous
 62
     7
370
    15
100
AcDbLine
 10
587.8481892457
 20
-151.9917845146
 30
0.0
 11
557.848217856
 21
-151.9917845146
 31
0.0
  0
LINE
  5
37F
330
1F
100
AcDbEntity
  8
0
  6
Continuous
 62
     7
370
    15
100
AcDbLine
 10
1056.1814335695
 20
-149.9917844196
 30
0.0
 11
1116.1814955583
 21
-149.9917844196
 31
0.0
  0
LINE
  5
380
330
1F
100
AcDbEntity
  8
0
  6
Continuous
 62
     7
370
    15
100
AcDbLine
 10
1116.1814955583
 20
-147.9917843246
 30
0.0
 11
1056.1814335695
 21
-147.9917843246
 31
0.0
  0
LINE
  5
381
330
1F
100
AcDbEntity
  8
0
  6
Continuous
 62
     7
370
    15
100
AcDbLine
 10
1101.1815098634
 20
-151.9917845146
 30
0.0
 11
1071.1814192643
 21
-151.9917845146
 31
0.0
  0
LINE
  5
382
330
1F
100
AcDbEntity
  8
0
  6
Continuous
 62
     7
370
    15
100
AcDbLine
 10
29.5148519388
 20
-149.9917844196
 30
0.0
 11
89.5148543229
 21
-149.9917844196
 31
0.0
  0
LINE
  5
383
330
1F
100
AcDbEntity
  8
0
  6
Continuous
 62
     7
370
    15
100
AcDbLine
 10
89.5148543229
 20
-147.9917843246
 30
0.0
 11
29.5148519388
 21
-147.9917843246
 31
0.0
  0
LINE
  5
384
330
1F
100
AcDbEntity
  8
0
  6
Continuous
 62
     7
370
    15
100
AcDbLine
 10
74.5148686281
 20
-151.9917845146
 30
0.0
 11
44.514867436
 21
-151.9917845146
 31
0.0
  0
LINE
  5
385
330
1F
100
AcDbEntity
  8
0
  6
Continuous
 62
     8
370
    15
100
AcDbLine
 10
-483.818437014
 20
-156.1617836708
 30
0.0
 11
-498.8184394726
 21
-156.1617836708
 31
0.0
  0
LINE
  5
386
330
1F
100
AcDbEntity
  8
0
  6
Continuous
 62
     8
370
    15
100
AcDbLine
 10
-468.8184373492
 20
-156.1617836708
 30
0.0
 11
-483.818437014
 21
-156.1617836708
 31
0.0
  0
LINE
  5
387
330
1F
100
AcDbEntity
  8
0
  6
Continuous
 62
     8
370
    15
100
AcDbLine
 10
-498.8184394726
 20
-157.2917843589
 30
0.0
 11
-468.8184373492
 21
-157.2917843589
 31
0.0
  0
LINE
  5
388
330
1F
100
AcDbEntity
  8
0
  6
Continuous
 62
     8
370
    15
100
AcDbLine
 10
-483.818437014
 20
-155.9643730873
 30
0.0
 11
-468.9863557408
 21
-155.9643730873
 31
0.0
  0
LINE
  5
389
330
1F
100
AcDbEntity
  8
0
  6
Continuous
 62
     8
370
    15
100
AcDbLine
 10
-498.6505182872
 20
-155.9643730873
 30
0.0
 11
-483.818437014
 21
-155.9643730873
 31
0.0
  0
LINE
  5
38A
330
1F
100
AcDbEntity
  8
0
  6
Continuous
 62
     8
370
    15
100
AcDbLine
 10
-474.0684377441
 20
-157.6917846107
 30
0.0
 11
-493.5684362838
 21
-157.6917846107
 31
0.0
  0
LINE
  5
38B
330
1F
100
AcDbEntity
  8
0
  6
Continuous
 62
     8
370
    15
100
AcDbLine
 10
216.1815790048
 20
-156.1617836708
 30
0.0
 11
201.1815337053
 21
-156.1617836708
 31
0.0
  0
LINE
  5
38C
330
1F
100
AcDbEntity
  8
0
  6
Continuous
 62
     8
370
    15
100
AcDbLine
 10
231.1815646997
 20
-156.1617836708
 30
0.0
 11
216.1815790048
 21
-156.1617836708
 31
0.0
  0
LINE
  5
38D
330
1F
100
AcDbEntity
  8
0
  6
Continuous
 62
     8
370
    15
100
AcDbLine
 10
201.1815337053
 20
-157.2917843589
 30
0.0
 11
231.1815646997
 21
-157.2917843589
 31
0.0
  0
LINE
  5
38E
330
1F
100
AcDbEntity
  8
0
  6
Continuous
 62
     8
370
    15
100
AcDbLine
 10
216.1815790048
 20
-155.9643730873
 30
0.0
 11
231.0136584153
 21
-155.9643730873
 31
0.0
  0
LINE
  5
38F
330
1F
100
AcDbEntity
  8
0
  6
Continuous
 62
     8
370
    15
100
AcDbLine
 10
201.3494995942
 20
-155.9643730873
 30
0.0
 11
216.1815790048
 21
-155.9643730873
 31
0.0
  0
LINE
  5
390
330
1F
100
AcDbEntity
  8
0
  6
Continuous
 62
     8
370
    15
100
AcDbLine
 10
225.9315875879
 20
-157.6917846107
 30
0.0
 11
206.4315704217
 21
-157.6917846107
 31
0.0
  0
LINE
  5
391
330
1F
100
AcDbEntity
  8
0
  6
Continuous
 62
     8
370
    15
100
AcDbLine
 10
-496.3184381315
 20
-192.8233955407
 30
0.0
 11
-471.318437759
 21
-192.8233955407
 31
0.0
  0
LINE
  5
392
330
1F
100
AcDbEntity
  8
0
  6
Continuous
 62
     8
370
    15
100
AcDbLine
 10
-471.4845018873
 20
-193.0204969251
 30
0.0
 11
-496.1523721406
 21
-193.0204969251
 31
0.0
  0
LINE
  5
393
330
1F
100
AcDbEntity
  8
0
  6
Continuous
 62
     8
370
    15
100
AcDbLine
 10
203.6815909257
 20
-192.8233955407
 30
0.0
 11
228.6815670839
 21
-192.8233955407
 31
0.0
  0
LINE
  5
394
330
1F
100
AcDbEntity
  8
0
  6
Continuous
 62
     8
370
    15
100
AcDbLine
 10
228.5155085435
 20
-193.0204969251
 30
0.0
 11
203.8476494661
 21
-193.0204969251
 31
0.0
  0
LINE
  5
395
330
1F
100
AcDbEntity
  8
0
  6
Continuous
 62
     8
370
    15
100
AcDbLine
 10
-534.8184379229
 20
-194.4217834973
 30
0.0
 11
-504.8184367308
 21
-194.4217834973
 31
0.0
  0
LINE
  5
396
330
1F
100
AcDbEntity
  8
0
  6
Continuous
 62
     8
370
    15
100
AcDbLine
 10
-504.9863579163
 20
-194.6191940808
 30
0.0
 11
-534.6505167374
 21
-194.6191940808
 31
0.0
  0
LINE
  5
397
330
1F
100
AcDbEntity
  8
0
  6
Continuous
 62
     8
370
    15
100
AcDbLine
 10
1125.1815585008
 20
-194.4217834973
 30
0.0
 11
1155.1815298906
 21
-194.4217834973
 31
0.0
  0
LINE
  5
398
330
1F
100
AcDbEntity
  8
0
  6
Continuous
 62
     8
370
    15
100
AcDbLine
 10
1155.0136832109
 20
-194.6191940808
 30
0.0
 11
1125.3495243898
 21
-194.6191940808
 31
0.0
  0
LINE
  5
399
330
1F
100
AcDbEntity
  8
0
  6
Continuous
 62
     7
370
    15
100
AcDbLine
 10
-788.4274333013
 20
2150.233755669
 30
0.0
 11
-788.2274336411
 21
2150.433755795
 31
0.0
  0
LINE
  5
39A
330
1F
100
AcDbEntity
  8
0
  6
Continuous
 62
     7
370
    15
100
AcDbLine
 10
-788.2274336411
 20
2164.9337553777
 30
0.0
 11
-788.4274333013
 21
2165.1337555036
 31
0.0
  0
LINE
  5
39B
330
1F
100
AcDbEntity
  8
0
  6
Continuous
 62
     7
370
    15
100
AcDbLine
 10
-788.4274333013
 20
2165.1337555036
 30
0.0
 11
-792.1265888257
 21
2165.1337555036
 31
0.0
  0
LINE
  5
39C
330
1F
100
AcDbEntity
  8
0
  6
Continuous
 62
     7
370
    15
100
AcDbLine
 10
-794.7647388322
 20
2165.1337555036
 30
0.0
 11
-794.8262545509
 21
2165.1337555036
 31
0.0
  0
LINE
  5
39D
330
1F
100
AcDbEntity
  8
0
  6
Continuous
 62
     7
370
    15
100
AcDbLine
 10
-794.8606259419
 20
2150.233755669
 30
0.0
 11
-794.7647388322
 21
2150.233755669
 31
0.0
  0
LINE
  5
39E
330
1F
100
AcDbEntity
  8
0
  6
Continuous
 62
     7
370
    15
100
AcDbLine
 10
-792.1265888257
 20
2150.233755669
 30
0.0
 11
-788.4274333013
 21
2150.233755669
 31
0.0
  0
LWPOLYLINE
  5
39F
330
1F
100
AcDbEntity
  8
0
  6
Continuous
 62
     7
370
    15
100
AcDbPolyline
 90
        3
 70
   128
 43
0.0
 10
-778.2274338646
 20
2150.233755669
 10
-777.4470721601
 20
2150.3106144615
 10
-777.1940085335
 20
2150.3695569359
  0
LWPOLYLINE
  5
3A0
330
1F
100
AcDbEntity
  8
0
  6
Continuous
 62
     7
370
    15
100
AcDbPolyline
 90
        3
 70
   128
 43
0.0
 10
-777.1940085335
 20
2164.9979542368
 10
-777.4470721601
 20
2165.0568967112
 10
-778.2274338646
 20
2165.1337555036
  0
LINE
  5
3A1
330
1F
100
AcDbEntity
  8
0
  6
Continuous
 62
     7
370
    15
100
AcDbLine
 10
-778.2274338646
 20
2165.1337555036
 30
0.0
 11
-788.0274339808
 21
2165.1337555036
 31
0.0
  0
LINE
  5
3A2
330
1F
100
AcDbEntity
  8
0
  6
Continuous
 62
     7
370
    15
100
AcDbLine
 10
-788.0274339808
 20
2150.233755669
 30
0.0
 11
-778.2274338646
 21
2150.233755669
 31
0.0
  0
LINE
  5
3A3
330
1F
100
AcDbEntity
  8
0
  6
Continuous
 62
     7
370
    15
100
AcDbLine
 10
-788.0274339808
 20
2165.1337555036
 30
0.0
 11
-788.2274336411
 21
2164.9337553777
 31
0.0
  0
LINE
  5
3A4
330
1F
100
AcDbEntity
  8
0
  6
Continuous
 62
     7
370
    15
100
AcDbLine
 10
-788.2274336411
 20
2150.433755795
 30
0.0
 11
-788.0274339808
 21
2150.233755669
 31
0.0
  0
ARC
  5
3A5
330
1F
100
AcDbEntity
  8
0
  6
Continuous
 62
     7
370
    15
100
AcDbCircle
 10
-779.8974325838
 20
2045.3837555863
 30
0.0
 40
0.2000000000000455
100
AcDbArc
 50
270.0
 51
350.7694259592
  0
ARC
  5
3A6
330
1F
100
AcDbEntity
  8
0
  6
Continuous
 62
     7
370
    15
100
AcDbCircle
 10
-779.8974325838
 20
2074.9837555863
 30
0.0
 40
0.2000000000002728
100
AcDbArc
 50
9.2305740409
 51
90.0
  0
LINE
  5
3A7
330
1F
100
AcDbEntity
  8
0
  6
Continuous
 62
     7
370
    15
100
AcDbLine
 10
-779.8974330766
 20
2075.1837523081
 30
0.0
 11
-781.2274343563
 21
2075.1837523081
 31
0.0
  0
LINE
  5
3A8
330
1F
100
AcDbEntity
  8
0
  6
Continuous
 62
     7
370
    15
100
AcDbLine
 10
-781.2274343563
 20
2045.1837585666
 30
0.0
 11
-779.8974330766
 21
2045.1837585666
 31
0.0
  0
ARC
  5
3A9
330
1F
100
AcDbEntity
  8
0
  6
Continuous
 62
     7
370
    15
100
AcDbCircle
 10
-898.1461195147
 20
2064.6006241946
 30
0.0
 40
120.0000000000001
100
AcDbArc
 50
350.7694259592
 51
356.5805440306
  0
ARC
  5
3AA
330
1F
100
AcDbEntity
  8
0
  6
Continuous
 62
     7
370
    15
100
AcDbCircle
 10
-898.1461195147
 20
2055.7668869781
 30
0.0
 40
120.0000000000002
100
AcDbArc
 50
3.418957854
 51
9.2305740408
  0
LINE
  5
3AB
330
1F
100
AcDbEntity
  8
0
  6
Continuous
 62
     7
370
    15
100
AcDbLine
 10
-779.8974330766
 20
2020.1837526061
 30
0.0
 11
-781.2274343563
 21
2020.1837526061
 31
0.0
  0
LINE
  5
3AC
330
1F
100
AcDbEntity
  8
0
  6
Continuous
 62
     7
370
    15
100
AcDbLine
 10
-781.2274343563
 20
1990.183751414
 30
0.0
 11
-779.8974330766
 21
1990.183751414
 31
0.0
  0
ARC
  5
3AD
330
1F
100
AcDbEntity
  8
0
  6
Continuous
 62
     7
370
    15
100
AcDbCircle
 10
-779.8974325838
 20
1990.3837555863
 30
0.0
 40
0.1999999999999303
100
AcDbArc
 50
270.0
 51
350.7694259593
  0
ARC
  5
3AE
330
1F
100
AcDbEntity
  8
0
  6
Continuous
 62
     7
370
    15
100
AcDbCircle
 10
-779.8974325838
 20
2019.9837555863
 30
0.0
 40
0.2000000000000455
100
AcDbArc
 50
9.2305740409
 51
90.0
  0
LINE
  5
3AF
330
1F
100
AcDbEntity
  8
0
  6
Continuous
 62
     7
370
    15
100
AcDbLine
 10
-778.3816898889
 20
2002.0852136002
 30
0.0
 11
-778.376843175
 21
2002.1628526831
 31
0.0
  0
ARC
  5
3B0
330
1F
100
AcDbEntity
  8
0
  6
Continuous
 62
     7
370
    15
100
AcDbCircle
 10
-898.1461195147
 20
2009.6006241946
 30
0.0
 40
120.0
100
AcDbArc
 50
350.7694259592
 51
356.4093058417
  0
ARC
  5
3B1
330
1F
100
AcDbEntity
  8
0
  6
Continuous
 62
     7
370
    15
100
AcDbCircle
 10
-898.1461195147
 20
2000.7668869781
 30
0.0
 40
120.0000000000001
100
AcDbArc
 50
3.6056329326
 51
9.2305740408
  0
LINE
  5
3B2
330
1F
100
AcDbEntity
  8
0
  6
Continuous
 62
     7
370
    15
100
AcDbLine
 10
-778.3766826069
 20
2008.2020724345
 30
0.0
 11
-778.3836534587
 21
2008.3135235919
 31
0.0
  0
LINE
  5
3B3
330
1F
100
AcDbEntity
  8
0
  6
Continuous
 62
     7
370
    15
100
AcDbLine
 10
-772.3974327786
 20
2211.1837559738
 30
0.0
 11
-773.5274334667
 21
2211.1837559738
 31
0.0
  0
LINE
  5
3B4
330
1F
100
AcDbEntity
  8
0
  6
Continuous
 62
     7
370
    15
100
AcDbLine
 10
-773.5274334667
 20
2181.1837547817
 30
0.0
 11
-772.3974327786
 21
2181.1837547817
 31
0.0
  0
ARC
  5
3B5
330
1F
100
AcDbEntity
  8
0
  6
Continuous
 62
     7
370
    15
100
AcDbCircle
 10
-773.5274334325
 20
2210.9837555863
 30
0.0
 40
0.2000000000007276
100
AcDbArc
 50
90.0
 51
180.0
  0
ARC
  5
3B6
330
1F
100
AcDbEntity
  8
0
  6
Continuous
 62
     7
370
    15
100
AcDbCircle
 10
-773.5274334325
 20
2181.3837555863
 30
0.0
 40
0.2000000000000455
100
AcDbArc
 50
180.0
 51
270.0
  0
ARC
  5
3B7
330
1F
100
AcDbEntity
  8
0
  6
Continuous
 62
     7
370
    15
100
AcDbCircle
 10
-772.3974325838
 20
2181.3837555863
 30
0.0
 40
0.1999999999999668
100
AcDbArc
 50
270.0
 51
350.7694259592
  0
ARC
  5
3B8
330
1F
100
AcDbEntity
  8
0
  6
Continuous
 62
     7
370
    15
100
AcDbCircle
 10
-772.3974325838
 20
2210.9837555863
 30
0.0
 40
0.2000000000007276
100
AcDbArc
 50
9.2305740409
 51
90.0
  0
ARC
  5
3B9
330
1F
100
AcDbEntity
  8
0
  6
Continuous
 62
     7
370
    15
100
AcDbCircle
 10
-890.6461195147
 20
2200.6006241946
 30
0.0
 40
119.9999999999999
100
AcDbArc
 50
350.7694259592
 51
356.5108676084
  0
ARC
  5
3BA
330
1F
100
AcDbEntity
  8
0
  6
Continuous
 62
     7
370
    15
100
AcDbCircle
 10
-890.6461195147
 20
2191.7668869781
 30
0.0
 40
120.0
100
AcDbArc
 50
3.4870608462
 51
9.2305740408
  0
ARC
  5
3BB
330
1F
100
AcDbEntity
  8
0
  6
Continuous
 62
     7
370
    15
100
AcDbCircle
 10
-773.9274334325
 20
2206.1337555863
 30
0.0
 40
0.2000000000000455
100
AcDbArc
 50
270.0
 51
0.0
  0
ARC
  5
3BC
330
1F
100
AcDbEntity
  8
0
  6
Continuous
 62
     7
370
    15
100
AcDbCircle
 10
-773.9274334325
 20
2186.2337555863
 30
0.0
 40
0.2000000000002728
100
AcDbArc
 50
0.0
 51
90.0
  0
LINE
  5
3BD
330
1F
100
AcDbEntity
  8
0
  6
Continuous
 62
     7
370
    15
100
AcDbLine
 10
-773.9274337186
 20
2205.9337565102
 30
0.0
 11
-774.227433209
 21
2205.9337565102
 31
0.0
  0
LINE
  5
3BE
330
1F
100
AcDbEntity
  8
0
  6
Continuous
 62
     7
370
    15
100
AcDbLine
 10
-774.227433209
 20
2186.4337561079
 30
0.0
 11
-773.9274337186
 21
2186.4337561079
 31
0.0
  0
LINE
  5
3BF
330
1F
100
AcDbEntity
  8
0
  6
Continuous
 62
     7
370
    15
100
AcDbLine
 10
-792.2274342967
 20
2046.1837531426
 30
0.0
 11
-790.7274331195
 21
2046.1837531426
 31
0.0
  0
LINE
  5
3C0
330
1F
100
AcDbEntity
  8
0
  6
Continuous
 62
     7
370
    15
100
AcDbLine
 10
-790.7274331195
 20
2074.1837577321
 30
0.0
 11
-792.2274342967
 21
2074.1837577321
 31
0.0
  0
LINE
  5
3C1
330
1F
100
AcDbEntity
  8
0
  6
Continuous
 62
     7
370
    15
100
AcDbLine
 10
-792.2274342967
 20
1991.1837534406
 30
0.0
 11
-790.7274331195
 21
1991.1837534406
 31
0.0
  0
LINE
  5
3C2
330
1F
100
AcDbEntity
  8
0
  6
Continuous
 62
     7
370
    15
100
AcDbLine
 10
-790.7274331195
 20
2019.1837505796
 30
0.0
 11
-792.2274342967
 21
2019.1837505796
 31
0.0
  0
LINE
  5
3C3
330
1F
100
AcDbEntity
  8
0
  6
Continuous
 62
     7
370
    15
100
AcDbLine
 10
-782.7274336709
 20
2046.1837531426
 30
0.0
 11
-781.2274343563
 21
2046.1837531426
 31
0.0
  0
LINE
  5
3C4
330
1F
100
AcDbEntity
  8
0
  6
Continuous
 62
     7
370
    15
100
AcDbLine
 10
-781.2274343563
 20
2074.1837577321
 30
0.0
 11
-782.7274336709
 21
2074.1837577321
 31
0.0
  0
LINE
  5
3C5
330
1F
100
AcDbEntity
  8
0
  6
Continuous
 62
     7
370
    15
100
AcDbLine
 10
-782.7274336709
 20
1991.1837534406
 30
0.0
 11
-781.2274343563
 21
1991.1837534406
 31
0.0
  0
LINE
  5
3C6
330
1F
100
AcDbEntity
  8
0
  6
Continuous
 62
     7
370
    15
100
AcDbLine
 10
-781.2274343563
 20
2019.1837505796
 30
0.0
 11
-782.7274336709
 21
2019.1837505796
 31
0.0
  0
LINE
  5
3C7
330
1F
100
AcDbEntity
  8
0
  6
Continuous
 62
     7
370
    15
100
AcDbLine
 10
-801.5274352623
 20
2075.1837523081
 30
0.0
 11
-801.7274349226
 21
2074.9837563731
 31
0.0
  0
LINE
  5
3C8
330
1F
100
AcDbEntity
  8
0
  6
Continuous
 62
     7
370
    15
100
AcDbLine
 10
-801.7274349226
 20
2045.3837545015
 30
0.0
 11
-801.5274352623
 21
2045.1837585666
 31
0.0
  0
LINE
  5
3C9
330
1F
100
AcDbEntity
  8
0
  6
Continuous
 62
     7
370
    15
100
AcDbLine
 10
-792.427433957
 20
2045.1837585666
 30
0.0
 11
-792.2274342967
 21
2045.3837545015
 31
0.0
  0
LINE
  5
3CA
330
1F
100
AcDbEntity
  8
0
  6
Continuous
 62
     7
370
    15
100
AcDbLine
 10
-792.2274342967
 20
2074.9837563731
 30
0.0
 11
-792.427433957
 21
2075.1837523081
 31
0.0
  0
LINE
  5
3CB
330
1F
100
AcDbEntity
  8
0
  6
Continuous
 62
     7
370
    15
100
AcDbLine
 10
-801.5274352623
 20
2045.1837585666
 30
0.0
 11
-792.427433957
 21
2045.1837585666
 31
0.0
  0
LINE
  5
3CC
330
1F
100
AcDbEntity
  8
0
  6
Continuous
 62
     7
370
    15
100
AcDbLine
 10
-792.427433957
 20
2075.1837523081
 30
0.0
 11
-801.5274352623
 21
2075.1837523081
 31
0.0
  0
LINE
  5
3CD
330
1F
100
AcDbEntity
  8
0
  6
Continuous
 62
     7
370
    15
100
AcDbLine
 10
-801.5274352623
 20
1990.183751414
 30
0.0
 11
-792.427433957
 21
1990.183751414
 31
0.0
  0
LINE
  5
3CE
330
1F
100
AcDbEntity
  8
0
  6
Continuous
 62
     7
370
    15
100
AcDbLine
 10
-792.427433957
 20
2020.1837526061
 30
0.0
 11
-801.5274352623
 21
2020.1837526061
 31
0.0
  0
LINE
  5
3CF
330
1F
100
AcDbEntity
  8
0
  6
Continuous
 62
     7
370
    15
100
AcDbLine
 10
-801.5274352623
 20
2020.1837526061
 30
0.0
 11
-801.7274349226
 21
2019.9837492206
 31
0.0
  0
LINE
  5
3D0
330
1F
100
AcDbEntity
  8
0
  6
Continuous
 62
     7
370
    15
100
AcDbLine
 10
-801.7274349226
 20
1990.3837547996
 30
0.0
 11
-801.5274352623
 21
1990.183751414
 31
0.0
  0
LINE
  5
3D1
330
1F
100
AcDbEntity
  8
0
  6
Continuous
 62
     7
370
    15
100
AcDbLine
 10
-792.427433957
 20
1990.183751414
 30
0.0
 11
-792.2274342967
 21
1990.3837547996
 31
0.0
  0
LINE
  5
3D2
330
1F
100
AcDbEntity
  8
0
  6
Continuous
 62
     7
370
    15
100
AcDbLine
 10
-792.2274342967
 20
2019.9837492206
 30
0.0
 11
-792.427433957
 21
2020.1837526061
 31
0.0
  0
LINE
  5
3D3
330
1F
100
AcDbEntity
  8
0
  6
Continuous
 62
     7
370
    15
100
AcDbLine
 10
-793.7274336113
 20
2225.1837582686
 30
0.0
 11
-795.2274329258
 21
2225.1837582686
 31
0.0
  0
LINE
  5
3D4
330
1F
100
AcDbEntity
  8
0
  6
Continuous
 62
     7
370
    15
100
AcDbLine
 10
-774.227433209
 20
2225.1837582686
 30
0.0
 11
-775.7274334548
 21
2225.1837582686
 31
0.0
  0
LINE
  5
3D5
330
1F
100
AcDbEntity
  8
0
  6
Continuous
 62
     7
370
    15
100
AcDbLine
 10
-776.6033954216
 20
2167.1837552809
 30
0.0
 11
-776.5280830903
 21
2167.1837552809
 31
0.0
  0
LINE
  5
3D6
330
1F
100
AcDbEntity
  8
0
  6
Continuous
 62
     7
370
    15
100
AcDbLine
 10
-775.7274334548
 20
2225.1837582686
 30
0.0
 11
-776.7478621794
 21
2225.1837582686
 31
0.0
  0
ARC
  5
3D7
330
1F
100
AcDbEntity
  8
0
  6
Continuous
 62
     7
370
    15
100
AcDbCircle
 10
-784.7534848557
 20
2234.7837555863
 30
0.0
 40
12.50000000000034
100
AcDbArc
 50
230.1746287392
 51
309.8253712608
  0
LINE
  5
3D8
330
1F
100
AcDbEntity
  8
0
  6
Continuous
 62
     7
370
    15
100
AcDbLine
 10
-792.7591077281
 20
2225.1837582686
 30
0.0
 11
-793.7274336113
 21
2225.1837582686
 31
0.0
  0
LINE
  5
3D9
330
1F
100
AcDbEntity
  8
0
  6
Continuous
 62
     7
370
    15
100
AcDbLine
 10
-801.4274335696
 20
2181.1837547817
 30
0.0
 11
-796.0274352921
 21
2181.1837547817
 31
0.0
  0
LINE
  5
3DA
330
1F
100
AcDbEntity
  8
0
  6
Continuous
 62
     7
370
    15
100
AcDbLine
 10
-796.0274352921
 20
2211.1837559738
 30
0.0
 11
-801.4274335696
 21
2211.1837559738
 31
0.0
  0
LINE
  5
3DB
330
1F
100
AcDbEntity
  8
0
  6
Continuous
 62
     7
370
    15
100
AcDbLine
 10
-796.0274352921
 20
2181.1837547817
 30
0.0
 11
-795.7274339391
 21
2181.4837561347
 31
0.0
  0
LINE
  5
3DC
330
1F
100
AcDbEntity
  8
0
  6
Continuous
 62
     7
370
    15
100
AcDbLine
 10
-795.7274339391
 20
2210.8837546208
 30
0.0
 11
-796.0274352921
 21
2211.1837559738
 31
0.0
  0
LINE
  5
3DD
330
1F
100
AcDbEntity
  8
0
  6
Continuous
 62
     7
370
    15
100
AcDbLine
 10
-801.4274335696
 20
2211.1837559738
 30
0.0
 11
-801.7274349226
 21
2210.8837546208
 31
0.0
  0
LINE
  5
3DE
330
1F
100
AcDbEntity
  8
0
  6
Continuous
 62
     7
370
    15
100
AcDbLine
 10
-801.7274349226
 20
2181.4837561347
 30
0.0
 11
-801.4274335696
 21
2181.1837547817
 31
0.0
  0
LINE
  5
3DF
330
1F
100
AcDbEntity
  8
0
  6
Continuous
 62
     7
370
    15
100
AcDbLine
 10
-795.7274339391
 20
2186.4337561079
 30
0.0
 11
-795.2274329258
 21
2186.4337561079
 31
0.0
  0
LINE
  5
3E0
330
1F
100
AcDbEntity
  8
0
  6
Continuous
 62
     7
370
    15
100
AcDbLine
 10
-795.2274329258
 20
2205.9337565102
 30
0.0
 11
-795.7274339391
 21
2205.9337565102
 31
0.0
  0
LINE
  5
3E1
330
1F
100
AcDbEntity
  8
0
  6
Continuous
 62
     7
370
    15
100
AcDbLine
 10
-801.5274352623
 20
2128.1837554075
 30
0.0
 11
-773.727433127
 21
2128.1837554075
 31
0.0
  0
LINE
  5
3E2
330
1F
100
AcDbEntity
  8
0
  6
Continuous
 62
     7
370
    15
100
AcDbLine
 10
-773.727433127
 20
2128.1837554075
 30
0.0
 11
-772.7274338944
 21
2129.1837555714
 31
0.0
  0
LINE
  5
3E3
330
1F
100
AcDbEntity
  8
0
  6
Continuous
 62
     7
370
    15
100
AcDbLine
 10
-801.7274349226
 20
2128.3837550678
 30
0.0
 11
-801.5274352623
 21
2128.1837554075
 31
0.0
  0
ARC
  5
3E4
330
1F
100
AcDbEntity
  8
0
  6
Continuous
 62
     7
370
    15
100
AcDbCircle
 10
-809.0590461348
 20
2072.4837555863
 30
0.0
 40
0.1999999999998782
100
AcDbArc
 50
90.0
 51
170.2307482569
  0
ARC
  5
3E5
330
1F
100
AcDbEntity
  8
0
  6
Continuous
 62
     7
370
    15
100
AcDbCircle
 10
-809.0590461348
 20
2047.8837555863
 30
0.0
 40
0.2000000000000455
100
AcDbArc
 50
189.7692517432
 51
270.0
  0
LINE
  5
3E6
330
1F
100
AcDbEntity
  8
0
  6
Continuous
 62
     7
370
    15
100
AcDbLine
 10
-809.0590446485
 20
2047.6837561824
 30
0.0
 11
-807.7274321808
 21
2047.6837561824
 31
0.0
  0
LINE
  5
3E7
330
1F
100
AcDbEntity
  8
0
  6
Continuous
 62
     7
370
    15
100
AcDbLine
 10
-807.7274321808
 20
2072.6837546923
 30
0.0
 11
-809.0590446485
 21
2072.6837546923
 31
0.0
  0
ARC
  5
3E8
330
1F
100
AcDbEntity
  8
0
  6
Continuous
 62
     7
370
    15
100
AcDbCircle
 10
-690.9962538442
 20
2052.1560140358
 30
0.0
 40
120.0
100
AcDbArc
 50
170.2307482568
 51
176.16417102
  0
ARC
  5
3E9
330
1F
100
AcDbEntity
  8
0
  6
Continuous
 62
     7
370
    15
100
AcDbCircle
 10
-690.9962538442
 20
2068.2114971369
 30
0.0
 40
120.0
100
AcDbArc
 50
183.83582898
 51
189.7692517432
  0
LINE
  5
3EA
330
1F
100
AcDbEntity
  8
0
  6
Continuous
 62
     7
370
    15
100
AcDbLine
 10
-809.0590446485
 20
1992.6837490298
 30
0.0
 11
-807.7274321808
 21
1992.6837490298
 31
0.0
  0
LINE
  5
3EB
330
1F
100
AcDbEntity
  8
0
  6
Continuous
 62
     7
370
    15
100
AcDbLine
 10
-807.7274321808
 20
2017.6837549903
 30
0.0
 11
-809.0590446485
 21
2017.6837549903
 31
0.0
  0
ARC
  5
3EC
330
1F
100
AcDbEntity
  8
0
  6
Continuous
 62
     7
370
    15
100
AcDbCircle
 10
-809.0590461348
 20
2017.4837555863
 30
0.0
 40
0.2000000000000455
100
AcDbArc
 50
90.0
 51
170.2307482568
  0
ARC
  5
3ED
330
1F
100
AcDbEntity
  8
0
  6
Continuous
 62
     7
370
    15
100
AcDbCircle
 10
-809.0590461348
 20
1992.8837555863
 30
0.0
 40
0.1999999999999554
100
AcDbArc
 50
189.7692517433
 51
270.0
  0
ARC
  5
3EE
330
1F
100
AcDbEntity
  8
0
  6
Continuous
 62
     7
370
    15
100
AcDbCircle
 10
-690.9962538442
 20
1997.1560140358
 30
0.0
 40
120.0
100
AcDbArc
 50
170.2307482568
 51
176.16417102
  0
ARC
  5
3EF
330
1F
100
AcDbEntity
  8
0
  6
Continuous
 62
     7
370
    15
100
AcDbCircle
 10
-690.9962538442
 20
2013.2114971369
 30
0.0
 40
120.0
100
AcDbArc
 50
183.83582898
 51
189.7692517432
  0
ARC
  5
3F0
330
1F
100
AcDbEntity
  8
0
  6
Continuous
 62
     7
370
    15
100
AcDbCircle
 10
-809.0590461348
 20
2123.8837555863
 30
0.0
 40
0.1999999999998782
100
AcDbArc
 50
189.7692517431
 51
270.0
  0
LINE
  5
3F1
330
1F
100
AcDbEntity
  8
0
  6
Continuous
 62
     7
370
    15
100
AcDbLine
 10
-809.0590446485
 20
2123.6837537386
 30
0.0
 11
-807.7274321808
 21
2123.6837537386
 31
0.0
  0
ARC
  5
3F2
330
1F
100
AcDbEntity
  8
0
  6
Continuous
 62
     7
370
    15
100
AcDbCircle
 10
-690.9962538442
 20
2128.1560140358
 30
0.0
 40
120.0
100
AcDbArc
 50
173.0464573859
 51
176.16417102
  0
ARC
  5
3F3
330
1F
100
AcDbEntity
  8
0
  6
Continuous
 62
     7
370
    15
100
AcDbCircle
 10
-690.9962538442
 20
2144.2114971369
 30
0.0
 40
120.0
100
AcDbArc
 50
183.83582898
 51
189.7692517432
  0
ARC
  5
3F4
330
1F
100
AcDbEntity
  8
0
  6
Continuous
 62
     7
370
    15
100
AcDbCircle
 10
-809.0590461348
 20
2208.4837555863
 30
0.0
 40
0.2000000000002728
100
AcDbArc
 50
90.0
 51
170.2307482566
  0
ARC
  5
3F5
330
1F
100
AcDbEntity
  8
0
  6
Continuous
 62
     7
370
    15
100
AcDbCircle
 10
-809.0590461348
 20
2183.8837555863
 30
0.0
 40
0.1999999999998782
100
AcDbArc
 50
189.7692517431
 51
270.0
  0
LINE
  5
3F6
330
1F
100
AcDbEntity
  8
0
  6
Continuous
 62
     7
370
    15
100
AcDbLine
 10
-809.0590446485
 20
2183.6837561228
 30
0.0
 11
-807.7274321808
 21
2183.6837561228
 31
0.0
  0
LINE
  5
3F7
330
1F
100
AcDbEntity
  8
0
  6
Continuous
 62
     7
370
    15
100
AcDbLine
 10
-807.7274321808
 20
2208.6837546327
 30
0.0
 11
-809.0590446485
 21
2208.6837546327
 31
0.0
  0
ARC
  5
3F8
330
1F
100
AcDbEntity
  8
0
  6
Continuous
 62
     7
370
    15
100
AcDbCircle
 10
-690.9962538442
 20
2188.1560140358
 30
0.0
 40
120.0
100
AcDbArc
 50
170.2307482568
 51
176.16417102
  0
ARC
  5
3F9
330
1F
100
AcDbEntity
  8
0
  6
Continuous
 62
     7
370
    15
100
AcDbCircle
 10
-690.9962538442
 20
2204.2114971369
 30
0.0
 40
120.0000000000001
100
AcDbArc
 50
183.83582898
 51
189.7692517432
  0
LINE
  5
3FA
330
1F
100
AcDbEntity
  8
0
  6
Continuous
 62
     7
370
    15
100
AcDbLine
 10
-801.9274345828
 20
1989.1837493875
 30
0.0
 11
-801.7274349226
 21
1989.383752773
 31
0.0
  0
LINE
  5
3FB
330
1F
100
AcDbEntity
  8
0
  6
Continuous
 62
     7
370
    15
100
AcDbLine
 10
-807.5274325205
 20
2211.1837559738
 30
0.0
 11
-807.7274321808
 21
2210.9837563135
 31
0.0
  0
LINE
  5
3FC
330
1F
100
AcDbEntity
  8
0
  6
Continuous
 62
     7
370
    15
100
AcDbLine
 10
-801.7274349226
 20
2210.9837563135
 30
0.0
 11
-801.9274345828
 21
2211.1837559738
 31
0.0
  0
LINE
  5
3FD
330
1F
100
AcDbEntity
  8
0
  6
Continuous
 62
     7
370
    15
100
AcDbLine
 10
-803.077431698
 20
1989.1837493875
 30
0.0
 11
-801.9274345828
 21
1989.1837493875
 31
0.0
  0
LINE
  5
3FE
330
1F
100
AcDbEntity
  8
0
  6
Continuous
 62
     7
370
    15
100
AcDbLine
 10
-807.5274325205
 20
1989.1837493875
 30
0.0
 11
-806.356808473
 21
1989.1837493875
 31
0.0
  0
LINE
  5
3FF
330
1F
100
AcDbEntity
  8
0
  6
Continuous
 62
     7
370
    15
100
AcDbLine
 10
-801.9274345828
 20
2211.1837559738
 30
0.0
 11
-807.5274325205
 21
2211.1837559738
 31
0.0
  0
LINE
  5
400
330
1F
100
AcDbEntity
  8
0
  6
Continuous
 62
     7
370
    15
100
AcDbLine
 10
-807.7274321808
 20
1989.383752773
 30
0.0
 11
-807.5274325205
 21
1989.1837493875
 31
0.0
  0
LINE
  5
401
330
1F
100
AcDbEntity
  8
0
  6
Continuous
 62
     7
370
    15
100
AcDbLine
 10
-793.227432598
 20
76.9337670304
 30
0.0
 11
-794.2274327619
 21
76.9337670304
 31
0.0
  0
LINE
  5
402
330
1F
100
AcDbEntity
  8
0
  6
Continuous
 62
     7
370
    15
100
AcDbLine
 10
-779.2274330972
 20
76.9337670304
 30
0.0
 11
-780.2274341924
 21
76.9337670304
 31
0.0
  0
LINE
  5
403
330
1F
100
AcDbEntity
  8
0
  6
Continuous
 62
     7
370
    15
100
AcDbLine
 10
-794.7274337752
 20
77.1838681199
 30
0.0
 11
-796.2274349524
 21
77.1838681199
 31
0.0
  0
LINE
  5
404
330
1F
100
AcDbEntity
  8
0
  6
Continuous
 62
     7
370
    15
100
AcDbLine
 10
-777.2274337007
 20
77.1838681199
 30
0.0
 11
-778.7274330152
 21
77.1838681199
 31
0.0
  0
LINE
  5
405
330
1F
100
AcDbEntity
  8
0
  6
Continuous
 62
     7
370
    15
100
AcDbLine
 10
-776.7274336187
 20
76.683665941
 30
0.0
 11
-777.2274337007
 21
77.1838681199
 31
0.0
  0
LINE
  5
406
330
1F
100
AcDbEntity
  8
0
  6
Continuous
 62
     7
370
    15
100
AcDbLine
 10
-796.2274349524
 20
77.1838681199
 30
0.0
 11
-796.7274322404
 21
76.683665941
 31
0.0
  0
LINE
  5
407
330
1F
100
AcDbEntity
  8
0
  6
Continuous
 62
     7
370
    15
100
AcDbLine
 10
-778.7274330152
 20
77.1838681199
 30
0.0
 11
-779.2274330972
 21
76.683665941
 31
0.0
  0
LINE
  5
408
330
1F
100
AcDbEntity
  8
0
  6
Continuous
 62
     7
370
    15
100
AcDbLine
 10
-794.2274327619
 20
76.683665941
 30
0.0
 11
-794.7274337752
 21
77.1838681199
 31
0.0
  0
LINE
  5
409
330
1F
100
AcDbEntity
  8
0
  6
Continuous
 62
     7
370
    15
100
AcDbLine
 10
-810.6574326052
 20
2142.6837559216
 30
0.0
 11
-809.3274331881
 21
2142.6837559216
 31
0.0
  0
LINE
  5
40A
330
1F
100
AcDbEntity
  8
0
  6
Continuous
 62
     7
370
    15
100
AcDbLine
 10
-809.3274331881
 20
2172.6837552511
 30
0.0
 11
-810.6574326052
 21
2172.6837552511
 31
0.0
  0
ARC
  5
40B
330
1F
100
AcDbEntity
  8
0
  6
Continuous
 62
     7
370
    15
100
AcDbCircle
 10
-810.6574342812
 20
2172.4837555863
 30
0.0
 40
0.2000000000007276
100
AcDbArc
 50
90.0
 51
170.7694259591
  0
ARC
  5
40C
330
1F
100
AcDbEntity
  8
0
  6
Continuous
 62
     7
370
    15
100
AcDbCircle
 10
-810.6574342812
 20
2142.8837555863
 30
0.0
 40
0.1999999999999668
100
AcDbArc
 50
189.2305740408
 51
270.0
  0
ARC
  5
40D
330
1F
100
AcDbEntity
  8
0
  6
Continuous
 62
     7
370
    15
100
AcDbCircle
 10
-692.4087473502
 20
2153.2668869781
 30
0.0
 40
120.0000000000001
100
AcDbArc
 50
170.7694259592
 51
176.4874053343
  0
ARC
  5
40E
330
1F
100
AcDbEntity
  8
0
  6
Continuous
 62
     7
370
    15
100
AcDbCircle
 10
-692.4087473502
 20
2162.1006241946
 30
0.0
 40
120.0000000000001
100
AcDbArc
 50
183.5116471215
 51
189.2305740408
  0
LINE
  5
40F
330
1F
100
AcDbEntity
  8
0
  6
Continuous
 62
     7
370
    15
100
AcDbLine
 10
-801.3274318768
 20
2177.6837551393
 30
0.0
 11
-809.3274331881
 21
2177.6837551393
 31
0.0
  0
LINE
  5
410
330
1F
100
AcDbEntity
  8
0
  6
Continuous
 62
     7
370
    15
100
AcDbLine
 10
-809.3274331881
 20
2137.6837560334
 30
0.0
 11
-801.3274318768
 21
2137.6837560334
 31
0.0
  0
LINE
  5
411
330
1F
100
AcDbEntity
  8
0
  6
Continuous
 62
     7
370
    15
100
AcDbLine
 10
-770.5274334407
 20
2173.6837563463
 30
0.0
 11
-801.3274318768
 21
2173.6837563463
 31
0.0
  0
LINE
  5
412
330
1F
100
AcDbEntity
  8
0
  6
Continuous
 62
     7
370
    15
100
AcDbLine
 10
-801.3274318768
 20
2141.6837548264
 30
0.0
 11
-770.5274334407
 21
2141.6837548264
 31
0.0
  0
LINE
  5
413
330
1F
100
AcDbEntity
  8
0
  6
Continuous
 62
     7
370
    15
100
AcDbLine
 10
-770.5274334407
 20
2141.6837548264
 30
0.0
 11
-768.7274332388
 21
2143.483755494
 31
0.0
  0
LINE
  5
414
330
1F
100
AcDbEntity
  8
0
  6
Continuous
 62
     7
370
    15
100
AcDbLine
 10
-768.7274332388
 20
2171.8837556787
 30
0.0
 11
-770.5274334407
 21
2173.6837563463
 31
0.0
  0
LINE
  5
415
330
1F
100
AcDbEntity
  8
0
  6
Continuous
 62
     7
370
    15
100
AcDbLine
 10
-734.227434103
 20
2153.6837553964
 30
0.0
 11
-724.2274343265
 21
2156.6837555388
 31
0.0
  0
LINE
  5
416
330
1F
100
AcDbEntity
  8
0
  6
Continuous
 62
     7
370
    15
100
AcDbLine
 10
-724.2274343265
 20
2158.6837556338
 30
0.0
 11
-734.227434103
 21
2161.6837557763
 31
0.0
  0
LINE
  5
417
330
1F
100
AcDbEntity
  8
0
  6
Continuous
 62
     7
370
    15
100
AcDbLine
 10
-734.227434103
 20
2161.6837557763
 30
0.0
 11
-764.2274334325
 21
2161.6837557763
 31
0.0
  0
LINE
  5
418
330
1F
100
AcDbEntity
  8
0
  6
Continuous
 62
     7
370
    15
100
AcDbLine
 10
-764.2274334325
 20
2153.6837553964
 30
0.0
 11
-734.227434103
 21
2153.6837553964
 31
0.0
  0
LINE
  5
419
330
1F
100
AcDbEntity
  8
0
  6
Continuous
 62
     7
370
    15
100
AcDbLine
 10
-768.2274336225
 20
2165.1837554187
 30
0.0
 11
-768.7274332388
 21
2165.1837554187
 31
0.0
  0
LINE
  5
41A
330
1F
100
AcDbEntity
  8
0
  6
Continuous
 62
     7
370
    15
100
AcDbLine
 10
-768.7274332388
 20
2150.183755754
 30
0.0
 11
-768.2274336225
 21
2150.183755754
 31
0.0
  0
LINE
  5
41B
330
1F
100
AcDbEntity
  8
0
  6
Continuous
 62
     7
370
    15
100
AcDbLine
 10
-764.2274334325
 20
2187.6837549158
 30
0.0
 11
-766.2274335275
 21
2187.6837549158
 31
0.0
  0
LINE
  5
41C
330
1F
100
AcDbEntity
  8
0
  6
Continuous
 62
     7
370
    15
100
AcDbLine
 10
-766.2274335275
 20
2127.6837562569
 30
0.0
 11
-764.2274334325
 21
2127.6837562569
 31
0.0
  0
LINE
  5
41D
330
1F
100
AcDbEntity
  8
0
  6
Continuous
 62
     7
370
    15
100
AcDbLine
 10
-766.2274335275
 20
2187.6837549158
 30
0.0
 11
-768.2274336225
 21
2172.6837552511
 31
0.0
  0
LINE
  5
41E
330
1F
100
AcDbEntity
  8
0
  6
Continuous
 62
     7
370
    15
100
AcDbLine
 10
-768.2274336225
 20
2142.6837559216
 30
0.0
 11
-766.2274335275
 21
2127.6837562569
 31
0.0
  0
CIRCLE
  5
41F
330
1F
100
AcDbEntity
  8
0
  6
Continuous
 62
     7
370
    15
100
AcDbCircle
 10
-784.7274334325
 20
2157.6837555863
 30
0.0
 40
10.50000000000011
  0
CIRCLE
  5
420
330
1F
100
AcDbEntity
  8
0
  6
Continuous
 62
     7
370
    15
100
AcDbCircle
 10
-784.7274334325
 20
2157.6837555863
 30
0.0
 40
12.50000000000011
  0
LINE
  5
421
330
1F
100
AcDbEntity
  8
0
  6
Continuous
 62
     7
370
    15
100
AcDbLine
 10
-788.4274333013
 20
2150.233755669
 30
0.0
 11
-788.4274333013
 21
2165.1337555036
 31
0.0
  0
LINE
  5
422
330
1F
100
AcDbEntity
  8
0
  6
Continuous
 62
     7
370
    15
100
AcDbLine
 10
-788.2274336411
 20
2150.433755795
 30
0.0
 11
-788.2274336411
 21
2164.9337553777
 31
0.0
  0
LINE
  5
423
330
1F
100
AcDbEntity
  8
0
  6
Continuous
 62
     7
370
    15
100
AcDbLine
 10
-788.0274339808
 20
2150.233755669
 30
0.0
 11
-788.0274339808
 21
2165.1337555036
 31
0.0
  0
LINE
  5
424
330
1F
100
AcDbEntity
  8
0
  6
Continuous
 62
     7
370
    15
100
AcDbLine
 10
-790.7274331195
 20
65.1837841966
 30
0.0
 11
-790.7274331195
 21
2115.1837551393
 31
0.0
  0
LINE
  5
425
330
1F
100
AcDbEntity
  8
0
  6
Continuous
 62
     7
370
    15
100
AcDbLine
 10
-790.7274331195
 20
2115.1837551393
 30
0.0
 11
-782.7274336709
 21
2115.1837551393
 31
0.0
  0
LINE
  5
426
330
1F
100
AcDbEntity
  8
0
  6
Continuous
 62
     7
370
    15
100
AcDbLine
 10
-782.7274336709
 20
65.1837841966
 30
0.0
 11
-782.7274336709
 21
2115.1837551393
 31
0.0
  0
LINE
  5
427
330
1F
100
AcDbEntity
  8
0
  6
Continuous
 62
     7
370
    15
100
AcDbLine
 10
-790.7274331195
 20
65.1837841966
 30
0.0
 11
-782.7274336709
 21
65.1837841966
 31
0.0
  0
LINE
  5
428
330
1F
100
AcDbEntity
  8
0
  6
Continuous
 62
     7
370
    15
100
AcDbLine
 10
-781.2274343563
 20
2046.2478728392
 30
0.0
 11
-781.2274343563
 21
2045.1837585666
 31
0.0
  0
LINE
  5
429
330
1F
100
AcDbEntity
  8
0
  6
Continuous
 62
     7
370
    15
100
AcDbLine
 10
-781.2274343563
 20
2075.1837523081
 30
0.0
 11
-781.2274343563
 21
2046.2478728392
 31
0.0
  0
SPLINE
  5
42A
330
1F
100
AcDbEntity
  8
0
  6
Continuous
 62
     7
370
    15
100
AcDbSpline
210
0.0
220
0.0
230
1.0
 70
     8
 71
     3
 72
     9
 73
     5
 74
     0
 42
0.000000001
 43
0.00000001
 40
0.0
 40
0.0
 40
0.0
 40
0.0
 40
0.7320903450544368
 40
1.0
 40
1.0
 40
1.0
 40
1.0
 10
-778.3757320834527
 20
2062.711011002262
 30
0.0
 10
-778.3655246603607
 20
2062.42880020017
 30
0.0
 10
-778.351581814152
 20
2062.043313895099
 30
0.0
 10
-778.3617882754263
 20
2061.657300418749
 30
0.0
 10
-778.3645226849446
 20
2061.553883681496
 30
0.0
  0
SPLINE
  5
42B
330
1F
100
AcDbEntity
  8
0
  6
Continuous
 62
     7
370
    15
100
AcDbSpline
210
0.0
220
0.0
230
1.0
 70
     8
 71
     3
 72
     9
 73
     5
 74
     0
 42
0.000000001
 43
0.00000001
 40
0.0
 40
0.0
 40
0.0
 40
0.0
 40
0.7982970385268304
 40
1.0
 40
1.0
 40
1.0
 40
1.0
 10
-778.3836846469173
 20
2062.640699873169
 30
0.0
 10
-778.3683205169274
 20
2062.716498630539
 30
0.0
 10
-778.3490743851639
 20
2062.811449198699
 30
0.0
 10
-778.3619343748715
 20
2062.905165041901
 30
0.0
 10
-778.3645282728801
 20
2062.924067805012
 30
0.0
  0
SPLINE
  5
42C
330
1F
100
AcDbEntity
  8
0
  6
Continuous
 62
     7
370
    15
100
AcDbSpline
210
0.0
220
0.0
230
1.0
 70
     8
 71
     3
 72
     9
 73
     5
 74
     0
 42
0.000000001
 43
0.00000001
 40
0.0
 40
0.0
 40
0.0
 40
0.0
 40
0.4999991769625437
 40
1.0
 40
1.0
 40
1.0
 40
1.0
 10
-778.3836846469173
 20
2059.732499847611
 30
0.0
 10
-778.3708687310319
 20
2060.21738278982
 30
0.0
 10
-778.3452368570694
 20
2061.187150270548
 30
0.0
 10
-778.370868702904
 20
2062.156182807262
 30
0.0
 10
-778.3836846469173
 20
2062.640699873169
 30
0.0
  0
SPLINE
  5
42D
330
1F
100
AcDbEntity
  8
0
  6
Continuous
 62
     7
370
    15
100
AcDbSpline
210
0.0
220
0.0
230
1.0
 70
     8
 71
     3
 72
     9
 73
     5
 74
     0
 42
0.000000001
 43
0.00000001
 40
0.0
 40
0.0
 40
0.0
 40
0.0
 40
0.5000060862567864
 40
1.0
 40
1.0
 40
1.0
 40
1.0
 10
-778.3836846469173
 20
2057.275551686485
 30
0.0
 10
-778.3708686129653
 20
2057.68473507806
 30
0.0
 10
-778.3452368570644
 20
2058.503091899748
 30
0.0
 10
-778.3708688209681
 20
2059.322700523889
 30
0.0
 10
-778.3836846469173
 20
2059.732499847611
 30
0.0
  0
LINE
  5
42E
330
1F
100
AcDbEntity
  8
0
  6
Continuous
 62
     7
370
    15
100
AcDbLine
 10
-778.3645254789
 20
2057.443472872
 30
0.0
 11
-778.3836846469
 21
2057.2755516865
 31
0.0
  0
SPLINE
  5
42F
330
1F
100
AcDbEntity
  8
0
  6
Continuous
 62
     7
370
    15
100
AcDbSpline
210
0.0
220
0.0
230
1.0
 70
     8
 71
     3
 72
     9
 73
     5
 74
     0
 42
0.000000001
 43
0.00000001
 40
0.0
 40
0.0
 40
0.0
 40
0.0
 40
0.7321123819483548
 40
0.9999999999999999
 40
0.9999999999999999
 40
0.9999999999999999
 40
0.9999999999999999
 10
-778.3757320834527
 20
2060.183759162624
 30
0.0
 10
-778.3655242880934
 20
2059.849298889827
 30
0.0
 10
-778.3515813530865
 20
2059.392456086666
 30
0.0
 10
-778.3617883554058
 20
2058.935925961084
 30
0.0
 10
-778.3645226849446
 20
2058.813627193173
 30
0.0
  0
LINE
  5
430
330
1F
100
AcDbEntity
  8
0
  6
Continuous
 62
     7
370
    15
100
AcDbLine
 10
-781.2274343563
 20
2013.5336772897
 30
0.0
 11
-781.2274343563
 21
1990.183751414
 31
0.0
  0
LINE
  5
431
330
1F
100
AcDbEntity
  8
0
  6
Continuous
 62
     7
370
    15
100
AcDbLine
 10
-781.2274343563
 20
2020.1837526061
 30
0.0
 11
-781.2274343563
 21
2013.5336772897
 31
0.0
  0
LINE
  5
432
330
1F
100
AcDbEntity
  8
0
  6
Continuous
 62
     7
370
    15
100
AcDbLine
 10
-778.379870881
 20
2002.1630631187
 30
0.0
 11
-778.3836846469
 21
2002.0604537227
 31
0.0
  0
SPLINE
  5
433
330
1F
100
AcDbEntity
  8
0
  6
Continuous
 62
     7
370
    15
100
AcDbSpline
210
0.0
220
0.0
230
1.0
 70
     8
 71
     3
 72
     9
 73
     5
 74
     0
 42
0.000000001
 43
0.00000001
 40
0.0
 40
0.0
 40
0.0
 40
0.0
 40
0.5408189797151788
 40
1.0
 40
1.0
 40
1.0
 40
1.0
 10
-778.3836846469173
 20
2006.926249096592
 30
0.0
 10
-778.3705198118398
 20
2007.156838867619
 30
0.0
 10
-778.3461774060233
 20
2007.583210314768
 30
0.0
 10
-778.36923106268
 20
2008.007958968608
 30
0.0
 10
-778.379816864265
 20
2008.202995488842
 30
0.0
  0
SPLINE
  5
434
330
1F
100
AcDbEntity
  8
0
  6
Continuous
 62
     7
370
    15
100
AcDbSpline
210
0.0
220
0.0
230
1.0
 70
     8
 71
     3
 72
     9
 73
     5
 74
     0
 42
0.000000001
 43
0.00000001
 40
0.0
 40
0.0
 40
0.0
 40
0.0
 40
0.4999980427884678
 40
1.0
 40
1.0
 40
1.0
 40
1.0
 10
-778.3836846469173
 20
2003.802965710362
 30
0.0
 10
-778.3708687504125
 20
2004.323543762458
 30
0.0
 10
-778.3452368570689
 20
2005.364703942192
 30
0.0
 10
-778.3708686835232
 20
2006.405732686783
 30
0.0
 10
-778.3836846469173
 20
2006.926249096592
 30
0.0
  0
SPLINE
  5
435
330
1F
100
AcDbEntity
  8
0
  6
Continuous
 62
     7
370
    15
100
AcDbSpline
210
0.0
220
0.0
230
1.0
 70
     8
 71
     3
 72
     9
 73
     5
 74
     0
 42
0.000000001
 43
0.00000001
 40
0.0
 40
0.0
 40
0.0
 40
0.0
 40
0.500012434984231
 40
0.9999999999999999
 40
0.9999999999999999
 40
0.9999999999999999
 40
0.9999999999999999
 10
-778.3836846469173
 20
2002.060453722676
 30
0.0
 10
-778.3708685044749
 20
2002.350458987032
 30
0.0
 10
-778.3452368570482
 20
2002.930455091259
 30
0.0
 10
-778.3708689294505
 20
2003.512133659437
 30
0.0
 10
-778.3836846469173
 20
2003.802965710362
 30
0.0
  0
LINE
  5
436
330
1F
100
AcDbEntity
  8
0
  6
Continuous
 62
     7
370
    15
100
AcDbLine
 10
-773.727433127
 20
2181.3837563046
 30
0.0
 11
-773.727433127
 21
2210.9837563135
 31
0.0
  0
LINE
  5
437
330
1F
100
AcDbEntity
  8
0
  6
Continuous
 62
     7
370
    15
100
AcDbLine
 10
-770.86858761
 20
2199.0705051817
 30
0.0
 11
-770.86858761
 21
2197.6271302797
 31
0.0
  0
SPLINE
  5
438
330
1F
100
AcDbEntity
  8
0
  6
Continuous
 62
     7
370
    15
100
AcDbSpline
210
0.0
220
0.0
230
1.0
 70
     8
 71
     3
 72
     9
 73
     5
 74
     0
 42
0.000000001
 43
0.00000001
 40
0.0
 40
0.0
 40
0.0
 40
0.0
 40
0.4999999999999999
 40
0.9999999999999999
 40
0.9999999999999999
 40
0.9999999999999999
 40
0.9999999999999999
 10
-770.8685876099596
 20
2197.62713027974
 30
0.0
 10
-770.8571095248888
 20
2197.146005312403
 30
0.0
 10
-770.8341533547471
 20
2196.18375537773
 30
0.0
 10
-770.8571095248888
 20
2195.221505443056
 30
0.0
 10
-770.8685876099596
 20
2194.74038047572
 30
0.0
  0
LINE
  5
439
330
1F
100
AcDbEntity
  8
0
  6
Continuous
 62
     7
370
    15
100
AcDbLine
 10
-770.86858761
 20
2194.7403804757
 30
0.0
 11
-770.86858761
 21
2193.2970055737
 31
0.0
  0
LINE
  5
43A
330
1F
100
AcDbEntity
  8
0
  6
Continuous
 62
     7
370
    15
100
AcDbLine
 10
-801.5274352623
 20
2075.1837523081
 30
0.0
 11
-801.5274352623
 21
2045.1837585666
 31
0.0
  0
LINE
  5
43B
330
1F
100
AcDbEntity
  8
0
  6
Continuous
 62
     7
370
    15
100
AcDbLine
 10
-792.2274342967
 20
2074.9837563731
 30
0.0
 11
-792.2274342967
 21
2045.3837545015
 31
0.0
  0
LINE
  5
43C
330
1F
100
AcDbEntity
  8
0
  6
Continuous
 62
     7
370
    15
100
AcDbLine
 10
-792.427433957
 20
2045.1837585666
 30
0.0
 11
-792.427433957
 21
2075.1837523081
 31
0.0
  0
LINE
  5
43D
330
1F
100
AcDbEntity
  8
0
  6
Continuous
 62
     7
370
    15
100
AcDbLine
 10
-792.427433957
 20
1990.183751414
 30
0.0
 11
-792.427433957
 21
2020.1837526061
 31
0.0
  0
LINE
  5
43E
330
1F
100
AcDbEntity
  8
0
  6
Continuous
 62
     7
370
    15
100
AcDbLine
 10
-801.5274352623
 20
2020.1837526061
 30
0.0
 11
-801.5274352623
 21
1990.183751414
 31
0.0
  0
LINE
  5
43F
330
1F
100
AcDbEntity
  8
0
  6
Continuous
 62
     7
370
    15
100
AcDbLine
 10
-792.2274342967
 20
2019.9837492206
 30
0.0
 11
-792.2274342967
 21
1990.3837547996
 31
0.0
  0
LINE
  5
440
330
1F
100
AcDbEntity
  8
0
  6
Continuous
 62
     7
370
    15
100
AcDbLine
 10
-795.2274329258
 20
2225.1837582686
 30
0.0
 11
-795.2274329258
 21
2173.6837563463
 31
0.0
  0
LINE
  5
441
330
1F
100
AcDbEntity
  8
0
  6
Continuous
 62
     7
370
    15
100
AcDbLine
 10
-793.7274336113
 20
2225.1837582686
 30
0.0
 11
-793.7274336113
 21
2173.6837563463
 31
0.0
  0
LINE
  5
442
330
1F
100
AcDbEntity
  8
0
  6
Continuous
 62
     7
370
    15
100
AcDbLine
 10
-774.227433209
 20
2225.1453132727
 30
0.0
 11
-774.227433209
 21
2225.1837582686
 31
0.0
  0
LINE
  5
443
330
1F
100
AcDbEntity
  8
0
  6
Continuous
 62
     7
370
    15
100
AcDbLine
 10
-774.227433209
 20
2173.6837563463
 30
0.0
 11
-774.227433209
 21
2225.1453132727
 31
0.0
  0
LINE
  5
444
330
1F
100
AcDbEntity
  8
0
  6
Continuous
 62
     7
370
    15
100
AcDbLine
 10
-775.7274334548
 20
2225.1453132727
 30
0.0
 11
-775.7274334548
 21
2225.1837582686
 31
0.0
  0
LINE
  5
445
330
1F
100
AcDbEntity
  8
0
  6
Continuous
 62
     7
370
    15
100
AcDbLine
 10
-775.7274334548
 20
2173.6837563463
 30
0.0
 11
-775.7274334548
 21
2225.1453132727
 31
0.0
  0
LINE
  5
446
330
1F
100
AcDbEntity
  8
0
  6
Continuous
 62
     7
370
    15
100
AcDbLine
 10
-776.7478621794
 20
2225.1837582686
 30
0.0
 11
-776.7478621794
 21
2173.6837563463
 31
0.0
  0
LINE
  5
447
330
1F
100
AcDbEntity
  8
0
  6
Continuous
 62
     7
370
    15
100
AcDbLine
 10
-775.7274334548
 20
2225.1837582686
 30
0.0
 11
-775.7274334548
 21
2173.6837563463
 31
0.0
  0
LINE
  5
448
330
1F
100
AcDbEntity
  8
0
  6
Continuous
 62
     7
370
    15
100
AcDbLine
 10
-792.7591077281
 20
2173.6837563463
 30
0.0
 11
-792.7591077281
 21
2225.1837582686
 31
0.0
  0
LINE
  5
449
330
1F
100
AcDbEntity
  8
0
  6
Continuous
 62
     7
370
    15
100
AcDbLine
 10
-796.0274352921
 20
2181.1837547817
 30
0.0
 11
-796.0274352921
 21
2211.1837559738
 31
0.0
  0
LINE
  5
44A
330
1F
100
AcDbEntity
  8
0
  6
Continuous
 62
     7
370
    15
100
AcDbLine
 10
-801.4274335696
 20
2211.1837559738
 30
0.0
 11
-801.4274335696
 21
2181.1837547817
 31
0.0
  0
LINE
  5
44B
330
1F
100
AcDbEntity
  8
0
  6
Continuous
 62
     7
370
    15
100
AcDbLine
 10
-795.7274339391
 20
2210.8837546208
 30
0.0
 11
-795.7274339391
 21
2181.4837561347
 31
0.0
  0
LINE
  5
44C
330
1F
100
AcDbEntity
  8
0
  6
Continuous
 62
     7
370
    15
100
AcDbLine
 10
-773.727433127
 20
2128.1837554075
 30
0.0
 11
-773.727433127
 21
2141.6837548264
 31
0.0
  0
LINE
  5
44D
330
1F
100
AcDbEntity
  8
0
  6
Continuous
 62
     7
370
    15
100
AcDbLine
 10
-801.5274352623
 20
2137.6837560334
 30
0.0
 11
-801.5274352623
 21
2128.1837554075
 31
0.0
  0
LINE
  5
44E
330
1F
100
AcDbEntity
  8
0
  6
Continuous
 62
     7
370
    15
100
AcDbLine
 10
-772.7274338944
 20
2141.6837548264
 30
0.0
 11
-772.7274338944
 21
2129.1837555714
 31
0.0
  0
LINE
  5
44F
330
1F
100
AcDbEntity
  8
0
  6
Continuous
 62
     7
370
    15
100
AcDbLine
 10
-803.1174338652
 20
1989.1837493875
 30
0.0
 11
-806.3374332382
 21
1989.1837493875
 31
0.0
  0
LINE
  5
450
330
1F
100
AcDbEntity
  8
0
  6
Continuous
 62
     7
370
    15
100
AcDbLine
 10
-801.9274345828
 20
1989.1837493875
 30
0.0
 11
-801.9274345828
 21
2004.1837499835
 31
0.0
  0
LINE
  5
451
330
1F
100
AcDbEntity
  8
0
  6
Continuous
 62
     7
370
    15
100
AcDbLine
 10
-801.9274345828
 20
2004.1837499835
 30
0.0
 11
-801.7274349226
 21
2004.1837499835
 31
0.0
  0
LINE
  5
452
330
1F
100
AcDbEntity
  8
0
  6
Continuous
 62
     7
370
    15
100
AcDbLine
 10
-801.7274349226
 20
2004.1837499835
 30
0.0
 11
-801.7274349226
 21
1989.383752773
 31
0.0
  0
LINE
  5
453
330
1F
100
AcDbEntity
  8
0
  6
Continuous
 62
     7
370
    15
100
AcDbLine
 10
-801.7274349226
 20
2196.1837553777
 30
0.0
 11
-801.7274349226
 21
2177.6837551393
 31
0.0
  0
LINE
  5
454
330
1F
100
AcDbEntity
  8
0
  6
Continuous
 62
     7
370
    15
100
AcDbLine
 10
-801.7274349226
 20
2137.6837560334
 30
0.0
 11
-801.7274349226
 21
2004.1837499835
 31
0.0
  0
LINE
  5
455
330
1F
100
AcDbEntity
  8
0
  6
Continuous
 62
     7
370
    15
100
AcDbLine
 10
-801.9274345828
 20
2004.1837499835
 30
0.0
 11
-801.9274345828
 21
2137.6837560334
 31
0.0
  0
LINE
  5
456
330
1F
100
AcDbEntity
  8
0
  6
Continuous
 62
     7
370
    15
100
AcDbLine
 10
-801.9274345828
 20
2177.6837551393
 30
0.0
 11
-801.9274345828
 21
2196.1837553777
 31
0.0
  0
LINE
  5
457
330
1F
100
AcDbEntity
  8
0
  6
Continuous
 62
     7
370
    15
100
AcDbLine
 10
-801.7274349226
 20
2196.1837553777
 30
0.0
 11
-801.9274345828
 21
2196.1837553777
 31
0.0
  0
LINE
  5
458
330
1F
100
AcDbEntity
  8
0
  6
Continuous
 62
     7
370
    15
100
AcDbLine
 10
-807.7274321808
 20
2196.1837553777
 30
0.0
 11
-807.7274321808
 21
2210.9837563135
 31
0.0
  0
LINE
  5
459
330
1F
100
AcDbEntity
  8
0
  6
Continuous
 62
     7
370
    15
100
AcDbLine
 10
-807.5274325205
 20
2211.1837559738
 30
0.0
 11
-807.5274325205
 21
2196.1837553777
 31
0.0
  0
LINE
  5
45A
330
1F
100
AcDbEntity
  8
0
  6
Continuous
 62
     7
370
    15
100
AcDbLine
 10
-807.7274321808
 20
2196.1837553777
 30
0.0
 11
-807.5274325205
 21
2196.1837553777
 31
0.0
  0
LINE
  5
45B
330
1F
100
AcDbEntity
  8
0
  6
Continuous
 62
     7
370
    15
100
AcDbLine
 10
-801.7274349226
 20
2210.9837563135
 30
0.0
 11
-801.7274349226
 21
2196.1837553777
 31
0.0
  0
LINE
  5
45C
330
1F
100
AcDbEntity
  8
0
  6
Continuous
 62
     7
370
    15
100
AcDbLine
 10
-801.9274345828
 20
2196.1837553777
 30
0.0
 11
-801.9274345828
 21
2211.1837559738
 31
0.0
  0
LINE
  5
45D
330
1F
100
AcDbEntity
  8
0
  6
Continuous
 62
     7
370
    15
100
AcDbLine
 10
-807.5274325205
 20
2004.1837499835
 30
0.0
 11
-807.5274325205
 21
1989.1837493875
 31
0.0
  0
LINE
  5
45E
330
1F
100
AcDbEntity
  8
0
  6
Continuous
 62
     7
370
    15
100
AcDbLine
 10
-801.9274345828
 20
2004.1837499835
 30
0.0
 11
-807.5274325205
 21
2004.1837499835
 31
0.0
  0
ARC
  5
45F
330
1F
100
AcDbEntity
  8
0
  6
Continuous
 62
     7
370
    15
100
AcDbCircle
 10
-804.7273695128
 20
1974.2468262306
 30
0.0
 40
15.02777322779176
100
AcDbArc
 50
83.6966418309
 51
96.2247335954
  0
LINE
  5
460
330
1F
100
AcDbEntity
  8
0
  6
Continuous
 62
     7
370
    15
100
AcDbLine
 10
-807.5274325205
 20
2196.1837553777
 30
0.0
 11
-807.5274325205
 21
2177.6837551393
 31
0.0
  0
LINE
  5
461
330
1F
100
AcDbEntity
  8
0
  6
Continuous
 62
     7
370
    15
100
AcDbLine
 10
-807.5274325205
 20
2137.6837560334
 30
0.0
 11
-807.5274325205
 21
2004.1837499835
 31
0.0
  0
LINE
  5
462
330
1F
100
AcDbEntity
  8
0
  6
Continuous
 62
     7
370
    15
100
AcDbLine
 10
-807.5274325205
 20
2004.1837499835
 30
0.0
 11
-807.7274321808
 21
2004.1837499835
 31
0.0
  0
LINE
  5
463
330
1F
100
AcDbEntity
  8
0
  6
Continuous
 62
     7
370
    15
100
AcDbLine
 10
-807.7274321808
 20
2004.1837499835
 30
0.0
 11
-807.7274321808
 21
2137.6837560334
 31
0.0
  0
LINE
  5
464
330
1F
100
AcDbEntity
  8
0
  6
Continuous
 62
     7
370
    15
100
AcDbLine
 10
-807.7274321808
 20
2177.6837551393
 30
0.0
 11
-807.7274321808
 21
2196.1837553777
 31
0.0
  0
LINE
  5
465
330
1F
100
AcDbEntity
  8
0
  6
Continuous
 62
     7
370
    15
100
AcDbLine
 10
-801.9274345828
 20
2196.1837553777
 30
0.0
 11
-807.5274325205
 21
2196.1837553777
 31
0.0
  0
LINE
  5
466
330
1F
100
AcDbEntity
  8
0
  6
Continuous
 62
     7
370
    15
100
AcDbLine
 10
-807.7274321808
 20
1989.383752773
 30
0.0
 11
-807.7274321808
 21
2004.1837499835
 31
0.0
  0
LINE
  5
467
330
1F
100
AcDbEntity
  8
0
  6
Continuous
 62
     7
370
    15
100
AcDbLine
 10
-794.2274327619
 20
62.9338280656
 30
0.0
 11
-794.2274327619
 21
76.9337670304
 31
0.0
  0
LINE
  5
468
330
1F
100
AcDbEntity
  8
0
  6
Continuous
 62
     7
370
    15
100
AcDbLine
 10
-793.227432598
 20
62.9338280656
 30
0.0
 11
-793.227432598
 21
76.9337670304
 31
0.0
  0
LINE
  5
469
330
1F
100
AcDbEntity
  8
0
  6
Continuous
 62
     7
370
    15
100
AcDbLine
 10
-794.2274327619
 20
62.9338280656
 30
0.0
 11
-793.227432598
 21
62.9338280656
 31
0.0
  0
LINE
  5
46A
330
1F
100
AcDbEntity
  8
0
  6
Continuous
 62
     7
370
    15
100
AcDbLine
 10
-780.2274341924
 20
62.9338280656
 30
0.0
 11
-779.2274330972
 21
62.9338280656
 31
0.0
  0
LINE
  5
46B
330
1F
100
AcDbEntity
  8
0
  6
Continuous
 62
     7
370
    15
100
AcDbLine
 10
-780.2274341924
 20
62.9338280656
 30
0.0
 11
-780.2274341924
 21
76.9337670304
 31
0.0
  0
LINE
  5
46C
330
1F
100
AcDbEntity
  8
0
  6
Continuous
 62
     7
370
    15
100
AcDbLine
 10
-779.2274330972
 20
62.9338280656
 30
0.0
 11
-779.2274330972
 21
76.9337670304
 31
0.0
  0
LINE
  5
46D
330
1F
100
AcDbEntity
  8
0
  6
Continuous
 62
     7
370
    15
100
AcDbLine
 10
-777.2274337007
 20
57.1836487748
 30
0.0
 11
-777.2274337007
 21
58.1838147142
 31
0.0
  0
LINE
  5
46E
330
1F
100
AcDbEntity
  8
0
  6
Continuous
 62
     7
370
    15
100
AcDbLine
 10
-776.7274336187
 20
58.1838147142
 30
0.0
 11
-777.2274337007
 21
58.1838147142
 31
0.0
  0
LINE
  5
46F
330
1F
100
AcDbEntity
  8
0
  6
Continuous
 62
     7
370
    15
100
AcDbLine
 10
-776.7274336187
 20
58.1838147142
 30
0.0
 11
-776.7274336187
 21
57.1836487748
 31
0.0
  0
LINE
  5
470
330
1F
100
AcDbEntity
  8
0
  6
Continuous
 62
     7
370
    15
100
AcDbLine
 10
-776.7274336187
 20
57.1836487748
 30
0.0
 11
-777.2274337007
 21
57.1836487748
 31
0.0
  0
LINE
  5
471
330
1F
100
AcDbEntity
  8
0
  6
Continuous
 62
     7
370
    15
100
AcDbLine
 10
-796.2274349524
 20
57.1836487748
 30
0.0
 11
-777.2274337007
 21
57.1836487748
 31
0.0
  0
LINE
  5
472
330
1F
100
AcDbEntity
  8
0
  6
Continuous
 62
     7
370
    15
100
AcDbLine
 10
-796.2274349524
 20
58.1838147142
 30
0.0
 11
-796.2274349524
 21
57.1836487748
 31
0.0
  0
LINE
  5
473
330
1F
100
AcDbEntity
  8
0
  6
Continuous
 62
     7
370
    15
100
AcDbLine
 10
-796.2274349524
 20
58.1838147142
 30
0.0
 11
-777.2274337007
 21
58.1838147142
 31
0.0
  0
LINE
  5
474
330
1F
100
AcDbEntity
  8
0
  6
Continuous
 62
     7
370
    15
100
AcDbLine
 10
-777.2274337007
 20
58.1838147142
 30
0.0
 11
-777.2274337007
 21
77.1838681199
 31
0.0
  0
LINE
  5
475
330
1F
100
AcDbEntity
  8
0
  6
Continuous
 62
     7
370
    15
100
AcDbLine
 10
-796.2274349524
 20
77.1838681199
 30
0.0
 11
-796.2274349524
 21
58.1838147142
 31
0.0
  0
LINE
  5
476
330
1F
100
AcDbEntity
  8
0
  6
Continuous
 62
     7
370
    15
100
AcDbLine
 10
-794.7274337752
 20
60.6953160264
 30
0.0
 11
-794.7274337752
 21
77.1838681199
 31
0.0
  0
LINE
  5
477
330
1F
100
AcDbEntity
  8
0
  6
Continuous
 62
     7
370
    15
100
AcDbLine
 10
-778.7274330152
 20
60.6953160264
 30
0.0
 11
-794.7274337752
 21
60.6953160264
 31
0.0
  0
LINE
  5
478
330
1F
100
AcDbEntity
  8
0
  6
Continuous
 62
     7
370
    15
100
AcDbLine
 10
-778.7274330152
 20
77.1838681199
 30
0.0
 11
-778.7274330152
 21
60.6953160264
 31
0.0
  0
LINE
  5
479
330
1F
100
AcDbEntity
  8
0
  6
Continuous
 62
     7
370
    15
100
AcDbLine
 10
-776.7274336187
 20
76.683665941
 30
0.0
 11
-776.7274336187
 21
58.1838147142
 31
0.0
  0
LINE
  5
47A
330
1F
100
AcDbEntity
  8
0
  6
Continuous
 62
     7
370
    15
100
AcDbLine
 10
-796.2274349524
 20
58.1838147142
 30
0.0
 11
-796.7274322404
 21
58.1838147142
 31
0.0
  0
LINE
  5
47B
330
1F
100
AcDbEntity
  8
0
  6
Continuous
 62
     7
370
    15
100
AcDbLine
 10
-796.7274322404
 20
58.1838147142
 30
0.0
 11
-796.7274322404
 21
76.683665941
 31
0.0
  0
LINE
  5
47C
330
1F
100
AcDbEntity
  8
0
  6
Continuous
 62
     7
370
    15
100
AcDbLine
 10
-796.7274322404
 20
57.1836487748
 30
0.0
 11
-796.7274322404
 21
58.1838147142
 31
0.0
  0
LINE
  5
47D
330
1F
100
AcDbEntity
  8
0
  6
Continuous
 62
     7
370
    15
100
AcDbLine
 10
-796.2274349524
 20
57.1836487748
 30
0.0
 11
-796.7274322404
 21
57.1836487748
 31
0.0
  0
LINE
  5
47E
330
1F
100
AcDbEntity
  8
0
  6
Continuous
 62
     7
370
    15
100
AcDbLine
 10
-794.2274327619
 20
61.183835695
 30
0.0
 11
-779.2274330972
 21
61.183835695
 31
0.0
  0
LINE
  5
47F
330
1F
100
AcDbEntity
  8
0
  6
Continuous
 62
     7
370
    15
100
AcDbLine
 10
-779.2274330972
 20
61.1049191453
 30
0.0
 11
-778.7274330152
 21
60.6953160264
 31
0.0
  0
LINE
  5
480
330
1F
100
AcDbEntity
  8
0
  6
Continuous
 62
     7
370
    15
100
AcDbLine
 10
-794.7274337752
 20
60.6953160264
 30
0.0
 11
-794.2274327619
 21
61.1049191453
 31
0.0
  0
LINE
  5
481
330
1F
100
AcDbEntity
  8
0
  6
Continuous
 62
     7
370
    15
100
AcDbLine
 10
-779.2274330972
 20
61.1049191453
 30
0.0
 11
-779.2274330972
 21
62.9338280656
 31
0.0
  0
LINE
  5
482
330
1F
100
AcDbEntity
  8
0
  6
Continuous
 62
     7
370
    15
100
AcDbLine
 10
-794.2274327619
 20
62.9338280656
 30
0.0
 11
-794.2274327619
 21
61.1049191453
 31
0.0
  0
SPLINE
  5
483
330
1F
100
AcDbEntity
  8
0
  6
Continuous
 62
     7
370
    15
100
AcDbSpline
210
0.0
220
0.0
230
1.0
 70
     8
 71
     3
 72
     9
 73
     5
 74
     0
 42
0.000000001
 43
0.00000001
 40
0.0
 40
0.0
 40
0.0
 40
0.0
 40
0.5825259991778781
 40
0.9999999999999999
 40
0.9999999999999999
 40
0.9999999999999999
 40
0.9999999999999999
 10
-812.1711819661983
 20
2155.779150862669
 30
0.0
 10
-812.1847043058841
 20
2155.578831104979
 30
0.0
 10
-812.2079175868446
 20
2155.234949873973
 30
0.0
 10
-812.1871235335939
 20
2154.89261067906
 30
0.0
 10
-812.17844255699
 20
2154.749692965721
 30
0.0
  0
SPLINE
  5
484
330
1F
100
AcDbEntity
  8
0
  6
Continuous
 62
     7
370
    15
100
AcDbSpline
210
0.0
220
0.0
230
1.0
 70
     8
 71
     3
 72
     9
 73
     5
 74
     0
 42
0.000000001
 43
0.00000001
 40
0.0
 40
0.0
 40
0.0
 40
0.0
 40
0.4999986045185357
 40
1.0
 40
1.0
 40
1.0
 40
1.0
 10
-812.1711819661984
 20
2158.882802434688
 30
0.0
 10
-812.1839988036227
 20
2158.365462160599
 30
0.0
 10
-812.2096325500142
 20
2157.330778724658
 30
0.0
 10
-812.1839988513178
 20
2156.29636111234
 30
0.0
 10
-812.1711819661983
 20
2155.779150862669
 30
0.0
  0
SPLINE
  5
485
330
1F
100
AcDbEntity
  8
0
  6
Continuous
 62
     7
370
    15
100
AcDbSpline
210
0.0
220
0.0
230
1.0
 70
     8
 71
     3
 72
     9
 73
     5
 74
     0
 42
0.000000001
 43
0.00000001
 40
0.0
 40
0.0
 40
0.0
 40
0.0
 40
0.5000138195353059
 40
1.0
 40
1.0
 40
1.0
 40
1.0
 10
-812.1711819661983
 20
2160.787407158365
 30
0.0
 10
-812.1839990636408
 20
2160.470369460607
 30
0.0
 10
-812.20963255004
 20
2159.836311589861
 30
0.0
 10
-812.1839985913126
 20
2159.200632963224
 30
0.0
 10
-812.1711819661983
 20
2158.882802434688
 30
0.0
  0
LINE
  5
486
330
1F
100
AcDbEntity
  8
0
  6
Continuous
 62
     7
370
    15
100
AcDbLine
 10
-812.1784053041
 20
2160.6187271778
 30
0.0
 11
-812.1711819662
 21
2160.7874071584
 31
0.0
  0
LINE
  5
487
330
1F
100
AcDbEntity
  8
0
  6
Continuous
 62
     7
370
    15
100
AcDbLine
 10
-809.3274331881
 20
2153.1504200198
 30
0.0
 11
-809.3274331881
 21
2177.6837551393
 31
0.0
  0
LINE
  5
488
330
1F
100
AcDbEntity
  8
0
  6
Continuous
 62
     7
370
    15
100
AcDbLine
 10
-809.3274331881
 20
2137.6837560334
 30
0.0
 11
-809.3274331881
 21
2153.1504200198
 31
0.0
  0
LINE
  5
489
330
1F
100
AcDbEntity
  8
0
  6
Continuous
 62
     7
370
    15
100
AcDbLine
 10
-801.3274318768
 20
2153.1504200198
 30
0.0
 11
-801.3274318768
 21
2177.6837551393
 31
0.0
  0
LINE
  5
48A
330
1F
100
AcDbEntity
  8
0
  6
Continuous
 62
     7
370
    15
100
AcDbLine
 10
-801.3274318768
 20
2137.6837560334
 30
0.0
 11
-801.3274318768
 21
2153.1504200198
 31
0.0
  0
LINE
  5
48B
330
1F
100
AcDbEntity
  8
0
  6
Continuous
 62
     7
370
    15
100
AcDbLine
 10
-772.127433051
 20
2157.6837555863
 30
0.0
 11
-772.4980090974
 21
2155.1231311992
 31
0.0
  0
LWPOLYLINE
  5
48C
330
1F
100
AcDbEntity
  8
0
  6
Continuous
 62
     7
370
    15
100
AcDbPolyline
 90
       17
 70
   128
 43
0.0
 10
-797.1986218585
 20
2157.4564607386
 10
-797.2024030281
 20
2159.4543766356
 10
-796.3247209085
 20
2162.6094950721
 10
-794.6051809235
 20
2165.5061648585
 10
-791.7547471119
 20
2168.1420945921
 10
-790.080264513
 20
2169.0902089127
 10
-788.2297768487
 20
2169.7872088649
 10
-785.4675839884
 20
2170.2619980447
 10
-782.6027277155
 20
2170.1033220985
 10
-779.4412004991
 20
2169.121226611
 10
-777.4577218337
 20
2167.9754269667
 10
-775.7275014414
 20
2166.5019880407
 10
-774.2501388533
 20
2164.6805357546
 10
-773.107058671
 20
2162.5547812678
 10
-772.2218672974
 20
2159.2234992082
 10
-772.127433051
 20
2157.6837555863
 10
-772.127433051
 20
2157.6837555863
  0
LINE
  5
48D
330
1F
100
AcDbEntity
  8
0
  6
Continuous
 62
     7
370
    15
100
AcDbLine
 10
-770.5274334407
 20
2157.6837555863
 30
0.0
 11
-770.5274334407
 21
2173.6837563463
 31
0.0
  0
LINE
  5
48E
330
1F
100
AcDbEntity
  8
0
  6
Continuous
 62
     7
370
    15
100
AcDbLine
 10
-770.5274334407
 20
2141.6837548264
 30
0.0
 11
-770.5274334407
 21
2157.6837555863
 31
0.0
  0
LINE
  5
48F
330
1F
100
AcDbEntity
  8
0
  6
Continuous
 62
     7
370
    15
100
AcDbLine
 10
-768.7274332388
 20
2157.6837555863
 30
0.0
 11
-768.7274332388
 21
2143.483755494
 31
0.0
  0
LINE
  5
490
330
1F
100
AcDbEntity
  8
0
  6
Continuous
 62
     7
370
    15
100
AcDbLine
 10
-768.7274332388
 20
2171.8837556787
 30
0.0
 11
-768.7274332388
 21
2157.6837555863
 31
0.0
  0
LINE
  5
491
330
1F
100
AcDbEntity
  8
0
  6
Continuous
 62
     7
370
    15
100
AcDbLine
 10
-734.227434103
 20
2153.6837553964
 30
0.0
 11
-734.227434103
 21
2161.6837557763
 31
0.0
  0
LINE
  5
492
330
1F
100
AcDbEntity
  8
0
  6
Continuous
 62
     7
370
    15
100
AcDbLine
 10
-724.2274343265
 20
2158.6837556338
 30
0.0
 11
-724.2274343265
 21
2156.6837555388
 31
0.0
  0
LINE
  5
493
330
1F
100
AcDbEntity
  8
0
  6
Continuous
 62
     7
370
    15
100
AcDbLine
 10
-766.2274335275
 20
2157.6837555863
 30
0.0
 11
-766.2274335275
 21
2127.6837562569
 31
0.0
  0
LINE
  5
494
330
1F
100
AcDbEntity
  8
0
  6
Continuous
 62
     7
370
    15
100
AcDbLine
 10
-766.2274335275
 20
2187.6837549158
 30
0.0
 11
-766.2274335275
 21
2157.6837555863
 31
0.0
  0
LINE
  5
495
330
1F
100
AcDbEntity
  8
0
  6
Continuous
 62
     7
370
    15
100
AcDbLine
 10
-764.2274334325
 20
2157.6837555863
 30
0.0
 11
-764.2274334325
 21
2187.6837549158
 31
0.0
  0
LINE
  5
496
330
1F
100
AcDbEntity
  8
0
  6
Continuous
 62
     7
370
    15
100
AcDbLine
 10
-764.2274334325
 20
2127.6837562569
 30
0.0
 11
-764.2274334325
 21
2157.6837555863
 31
0.0
  0
LINE
  5
497
330
1F
100
AcDbEntity
  8
0
  6
Continuous
 62
     7
370
    15
100
AcDbLine
 10
-768.2274336225
 20
2157.6837555863
 30
0.0
 11
-768.2274336225
 21
2172.6837552511
 31
0.0
  0
LINE
  5
498
330
1F
100
AcDbEntity
  8
0
  6
Continuous
 62
     7
370
    15
100
AcDbLine
 10
-768.2274336225
 20
2142.6837559216
 30
0.0
 11
-768.2274336225
 21
2157.6837555863
 31
0.0
  0
LINE
  5
499
330
1F
100
AcDbEntity
  8
0
  6
Continuous
 62
     8
370
    15
100
AcDbLine
 10
-778.2274338646
 20
2150.233755669
 30
0.0
 11
-778.2274338646
 21
2165.1337555036
 31
0.0
  0
LINE
  5
49A
330
1F
100
AcDbEntity
  8
0
  6
Continuous
 62
     8
370
    15
100
AcDbLine
 10
-779.7000224931
 20
2075.0158385732
 30
0.0
 11
-779.7000224931
 21
2045.3516723015
 31
0.0
  0
LINE
  5
49B
330
1F
100
AcDbEntity
  8
0
  6
Continuous
 62
     8
370
    15
100
AcDbLine
 10
-779.8974330766
 20
2045.1837585666
 30
0.0
 11
-779.8974330766
 21
2075.1837523081
 31
0.0
  0
LINE
  5
49C
330
1F
100
AcDbEntity
  8
0
  6
Continuous
 62
     8
370
    15
100
AcDbLine
 10
-779.8974330766
 20
1990.183751414
 30
0.0
 11
-779.8974330766
 21
2020.1837526061
 31
0.0
  0
LINE
  5
49D
330
1F
100
AcDbEntity
  8
0
  6
Continuous
 62
     8
370
    15
100
AcDbLine
 10
-779.7000224931
 20
2020.0158314206
 30
0.0
 11
-779.7000224931
 21
1990.3516725995
 31
0.0
  0
LINE
  5
49E
330
1F
100
AcDbEntity
  8
0
  6
Continuous
 62
     8
370
    15
100
AcDbLine
 10
-772.3974327786
 20
2181.1837547817
 30
0.0
 11
-772.3974327786
 21
2211.1837559738
 31
0.0
  0
LINE
  5
49F
330
1F
100
AcDbEntity
  8
0
  6
Continuous
 62
     8
370
    15
100
AcDbLine
 10
-773.5274334667
 20
2211.1837559738
 30
0.0
 11
-773.5274334667
 21
2181.1837547817
 31
0.0
  0
LINE
  5
4A0
330
1F
100
AcDbEntity
  8
0
  6
Continuous
 62
     8
370
    15
100
AcDbLine
 10
-772.2000221951
 20
2211.0158385136
 30
0.0
 11
-772.2000221951
 21
2181.3516741045
 31
0.0
  0
LINE
  5
4A1
330
1F
100
AcDbEntity
  8
0
  6
Continuous
 62
     8
370
    15
100
AcDbLine
 10
-773.9274337186
 20
2186.4337561079
 30
0.0
 11
-773.9274337186
 21
2205.9337565102
 31
0.0
  0
LINE
  5
4A2
330
1F
100
AcDbEntity
  8
0
  6
Continuous
 62
     8
370
    15
100
AcDbLine
 10
-809.2561460329
 20
2047.8498221733
 30
0.0
 11
-809.2561460329
 21
2072.5176887014
 31
0.0
  0
LINE
  5
4A3
330
1F
100
AcDbEntity
  8
0
  6
Continuous
 62
     8
370
    15
100
AcDbLine
 10
-809.0590446485
 20
2072.6837546923
 30
0.0
 11
-809.0590446485
 21
2047.6837561824
 31
0.0
  0
LINE
  5
4A4
330
1F
100
AcDbEntity
  8
0
  6
Continuous
 62
     8
370
    15
100
AcDbLine
 10
-809.0590446485
 20
2017.6837549903
 30
0.0
 11
-809.0590446485
 21
1992.6837490298
 31
0.0
  0
LINE
  5
4A5
330
1F
100
AcDbEntity
  8
0
  6
Continuous
 62
     8
370
    15
100
AcDbLine
 10
-809.2561460329
 20
1992.8498224713
 30
0.0
 11
-809.2561460329
 21
2017.51769645
 31
0.0
  0
LINE
  5
4A6
330
1F
100
AcDbEntity
  8
0
  6
Continuous
 62
     8
370
    15
100
AcDbLine
 10
-809.2561460329
 20
2123.8498197295
 30
0.0
 11
-809.2561460329
 21
2137.6837560334
 31
0.0
  0
LINE
  5
4A7
330
1F
100
AcDbEntity
  8
0
  6
Continuous
 62
     8
370
    15
100
AcDbLine
 10
-809.0590446485
 20
2137.6837560334
 30
0.0
 11
-809.0590446485
 21
2123.6837537386
 31
0.0
  0
LINE
  5
4A8
330
1F
100
AcDbEntity
  8
0
  6
Continuous
 62
     8
370
    15
100
AcDbLine
 10
-809.2561460329
 20
2196.1837553777
 30
0.0
 11
-809.2561460329
 21
2208.517692367
 31
0.0
  0
LINE
  5
4A9
330
1F
100
AcDbEntity
  8
0
  6
Continuous
 62
     8
370
    15
100
AcDbLine
 10
-809.2561460329
 20
2183.8498202511
 30
0.0
 11
-809.2561460329
 21
2196.1837553777
 31
0.0
  0
LINE
  5
4AA
330
1F
100
AcDbEntity
  8
0
  6
Continuous
 62
     8
370
    15
100
AcDbLine
 10
-809.0590446485
 20
2196.1837553777
 30
0.0
 11
-809.0590446485
 21
2183.6837561228
 31
0.0
  0
LINE
  5
4AB
330
1F
100
AcDbEntity
  8
0
  6
Continuous
 62
     8
370
    15
100
AcDbLine
 10
-809.0590446485
 20
2208.6837546327
 30
0.0
 11
-809.0590446485
 21
2196.1837553777
 31
0.0
  0
LINE
  5
4AC
330
1F
100
AcDbEntity
  8
0
  6
Continuous
 62
     8
370
    15
100
AcDbLine
 10
-810.6574326052
 20
2172.6837552511
 30
0.0
 11
-810.6574326052
 21
2142.6837559216
 31
0.0
  0
LINE
  5
4AD
330
1F
100
AcDbEntity
  8
0
  6
Continuous
 62
     8
370
    15
100
AcDbLine
 10
-810.8548431887
 20
2142.8516743131
 30
0.0
 11
-810.8548431887
 21
2172.5158368595
 31
0.0
  0
ENDSEC
  0
SECTION
  2
OBJECTS
  0
DICTIONARY
  5
C
330
0
100
AcDbDictionary
281
     1
  3
ACAD_GROUP
350
D
  3
ACAD_LAYOUT
350
1A
  3
ACAD_MLINESTYLE
350
17
  3
ACAD_PLOTSETTINGS
350
19
  3
ACAD_PLOTSTYLENAME
350
E
  3
ACAD_SCALELIST
350
47
  0
DICTIONARY
  5
D
102
{ACAD_REACTORS
330
C
102
}
330
C
100
AcDbDictionary
281
     1
  0
DICTIONARY
  5
1A
102
{ACAD_REACTORS
330
C
102
}
330
C
100
AcDbDictionary
281
     1
  3
Layout1
350
1E
  3
Layout2
350
26
  3
Model
350
22
  0
DICTIONARY
  5
17
102
{ACAD_REACTORS
330
C
102
}
330
C
100
AcDbDictionary
281
     1
  3
Standard
350
18
  0
DICTIONARY
  5
19
102
{ACAD_REACTORS
330
C
102
}
330
C
100
AcDbDictionary
281
     1
  0
ACDBDICTIONARYWDFLT
  5
E
102
{ACAD_REACTORS
330
C
102
}
330
C
100
AcDbDictionary
281
     1
  3
Normal
350
F
100
AcDbDictionaryWithDefault
340
F
  0
DICTIONARY
  5
47
102
{ACAD_REACTORS
330
C
102
}
330
C
100
AcDbDictionary
281
     1
  3
A0
350
48
  3
A1
350
49
  3
A2
350
4A
  3
A3
350
4B
  3
A4
350
4C
  3
A5
350
4D
  3
A6
350
4E
  3
A7
350
4F
  3
A8
350
50
  3
A9
350
51
  3
B0
350
52
  3
B1
350
53
  3
B2
350
54
  3
B3
350
55
  3
B4
350
56
  3
B5
350
57
  3
B6
350
58
  3
B7
350
59
  3
B8
350
5A
  3
B9
350
5B
  3
C0
350
5C
  3
C1
350
5D
  3
C2
350
5E
  3
C3
350
5F
  3
C4
350
60
  3
C5
350
61
  3
C6
350
62
  3
C7
350
63
  3
C8
350
64
  3
C9
350
65
  3
D0
350
66
  3
D1
350
67
  3
D2
350
68
  0
LAYOUT
  5
1E
102
{ACAD_REACTORS
330
1A
102
}
330
1A
100
AcDbPlotSettings
  1

  2
none_device
  4

  6

 40
0.0
 41
0.0
 42
0.0
 43
0.0
 44
0.0
 45
0.0
 46
0.0
 47
0.0
 48
0.0
 49
0.0
140
0.0
141
0.0
142
1.0
143
1.0
 70
   688
 72
     1
 73
     0
 74
     5
  7

 75
    16
147
1.0
148
0.0
149
0.0
100
AcDbLayout
  1
Layout1
 70
     1
 71
     1
 10
0.0
 20
0.0
 11
420.0
 21
297.0
 12
0.0
 22
0.0
 32
0.0
 14
1.0000000000E+20
 24
1.0000000000E+20
 34
1.0000000000E+20
 15
-1.0000000000E+20
 25
-1.0000000000E+20
 35
-1.0000000000E+20
146
0.0
 13
0.0
 23
0.0
 33
0.0
 16
1.0
 26
0.0
 36
0.0
 17
0.0
 27
1.0
 37
0.0
 76
     0
330
1B
  0
LAYOUT
  5
26
102
{ACAD_REACTORS
330
1A
102
}
330
1A
100
AcDbPlotSettings
  1

  2
none_device
  4

  6

 40
0.0
 41
0.0
 42
0.0
 43
0.0
 44
0.0
 45
0.0
 46
0.0
 47
0.0
 48
0.0
 49
0.0
140
0.0
141
0.0
142
1.0
143
1.0
 70
   688
 72
     1
 73
     0
 74
     5
  7

 75
    16
147
1.0
148
0.0
149
0.0
100
AcDbLayout
  1
Layout2
 70
     1
 71
     2
 10
0.0
 20
0.0
 11
0.0
 21
0.0
 12
0.0
 22
0.0
 32
0.0
 14
0.0
 24
0.0
 34
0.0
 15
0.0
 25
0.0
 35
0.0
146
0.0
 13
0.0
 23
0.0
 33
0.0
 16
1.0
 26
0.0
 36
0.0
 17
0.0
 27
1.0
 37
0.0
 76
     0
330
23
  0
LAYOUT
  5
22
102
{ACAD_REACTORS
330
1A
102
}
330
1A
100
AcDbPlotSettings
  1

  2
none_device
  4
Letter_(8.50_x_11.00_Inches)
  6

 40
6.35
 41
6.35
 42
6.35000508
 43
6.35000508
 44
215.9
 45
279.4
 46
0.0
 47
0.0
 48
0.0
 49
0.0
140
0.0
141
0.0
142
1.0
143
1.0
 70
  1712
 72
     1
 73
     0
 74
     0
  7

 75
     0
147
1.0
148
0.0
149
0.0
100
AcDbLayout
  1
Model
 70
     1
 71
     0
 10
0.0
 20
0.0
 11
431.8
 21
279.4
 12
0.0
 22
0.0
 32
0.0
 14
0.0
 24
0.0
 34
0.0
 15
431.8
 25
279.4
 35
0.0
146
0.0
 13
0.0
 23
0.0
 33
0.0
 16
1.0
 26
0.0
 36
0.0
 17
0.0
 27
1.0
 37
0.0
 76
     0
330
1F
331
29
  0
MLINESTYLE
  5
18
102
{ACAD_REACTORS
330
17
102
}
330
17
100
AcDbMlineStyle
  2
Standard
 70
     0
  3

 62
   256
 51
90.0
 52
90.0
 71
     2
 49
0.5
 62
   256
  6
BYLAYER
 49
-0.5
 62
   256
  6
BYLAYER
  0
ACDBPLACEHOLDER
  5
F
102
{ACAD_REACTORS
330
E
102
}
330
E
  0
SCALE
  5
48
102
{ACAD_REACTORS
330
47
102
}
330
47
100
AcDbScale
 70
     0
300
1:1
140
1.0
141
1.0
290
     1
  0
SCALE
  5
49
102
{ACAD_REACTORS
330
47
102
}
330
47
100
AcDbScale
 70
     0
300
1:2
140
1.0
141
2.0
290
     0
  0
SCALE
  5
4A
102
{ACAD_REACTORS
330
47
102
}
330
47
100
AcDbScale
 70
     0
300
1:4
140
1.0
141
4.0
290
     0
  0
SCALE
  5
4B
102
{ACAD_REACTORS
330
47
102
}
330
47
100
AcDbScale
 70
     0
300
1:5
140
1.0
141
5.0
290
     0
  0
SCALE
  5
4C
102
{ACAD_REACTORS
330
47
102
}
330
47
100
AcDbScale
 70
     0
300
1:8
140
1.0
141
8.0
290
     0
  0
SCALE
  5
4D
102
{ACAD_REACTORS
330
47
102
}
330
47
100
AcDbScale
 70
     0
300
1:10
140
1.0
141
10.0
290
     0
  0
SCALE
  5
4E
102
{ACAD_REACTORS
330
47
102
}
330
47
100
AcDbScale
 70
     0
300
1:16
140
1.0
141
16.0
290
     0
  0
SCALE
  5
4F
102
{ACAD_REACTORS
330
47
102
}
330
47
100
AcDbScale
 70
     0
300
1:20
140
1.0
141
20.0
290
     0
  0
SCALE
  5
50
102
{ACAD_REACTORS
330
47
102
}
330
47
100
AcDbScale
 70
     0
300
1:30
140
1.0
141
30.0
290
     0
  0
SCALE
  5
51
102
{ACAD_REACTORS
330
47
102
}
330
47
100
AcDbScale
 70
     0
300
1:40
140
1.0
141
40.0
290
     0
  0
SCALE
  5
52
102
{ACAD_REACTORS
330
47
102
}
330
47
100
AcDbScale
 70
     0
300
1:50
140
1.0
141
50.0
290
     0
  0
SCALE
  5
53
102
{ACAD_REACTORS
330
47
102
}
330
47
100
AcDbScale
 70
     0
300
1:100
140
1.0
141
100.0
290
     0
  0
SCALE
  5
54
102
{ACAD_REACTORS
330
47
102
}
330
47
100
AcDbScale
 70
     0
300
2:1
140
2.0
141
1.0
290
     0
  0
SCALE
  5
55
102
{ACAD_REACTORS
330
47
102
}
330
47
100
AcDbScale
 70
     0
300
4:1
140
4.0
141
1.0
290
     0
  0
SCALE
  5
56
102
{ACAD_REACTORS
330
47
102
}
330
47
100
AcDbScale
 70
     0
300
8:1
140
8.0
141
1.0
290
     0
  0
SCALE
  5
57
102
{ACAD_REACTORS
330
47
102
}
330
47
100
AcDbScale
 70
     0
300
10:1
140
10.0
141
1.0
290
     0
  0
SCALE
  5
58
102
{ACAD_REACTORS
330
47
102
}
330
47
100
AcDbScale
 70
     0
300
100:1
140
100.0
141
1.0
290
     0
  0
SCALE
  5
59
102
{ACAD_REACTORS
330
47
102
}
330
47
100
AcDbScale
 70
     0
300
1/128" = 1'-0"
140
0.0078125
141
12.0
290
     0
  0
SCALE
  5
5A
102
{ACAD_REACTORS
330
47
102
}
330
47
100
AcDbScale
 70
     0
300
1/64" = 1'-0"
140
0.015625
141
12.0
290
     0
  0
SCALE
  5
5B
102
{ACAD_REACTORS
330
47
102
}
330
47
100
AcDbScale
 70
     0
300
1/32" = 1'-0"
140
0.03125
141
12.0
290
     0
  0
SCALE
  5
5C
102
{ACAD_REACTORS
330
47
102
}
330
47
100
AcDbScale
 70
     0
300
1/16" = 1'-0"
140
0.0625
141
12.0
290
     0
  0
SCALE
  5
5D
102
{ACAD_REACTORS
330
47
102
}
330
47
100
AcDbScale
 70
     0
300
3/32" = 1'-0"
140
0.09375
141
12.0
290
     0
  0
SCALE
  5
5E
102
{ACAD_REACTORS
330
47
102
}
330
47
100
AcDbScale
 70
     0
300
1/8" = 1'-0"
140
0.125
141
12.0
290
     0
  0
SCALE
  5
5F
102
{ACAD_REACTORS
330
47
102
}
330
47
100
AcDbScale
 70
     0
300
3/16" = 1'-0"
140
0.1875
141
12.0
290
     0
  0
SCALE
  5
60
102
{ACAD_REACTORS
330
47
102
}
330
47
100
AcDbScale
 70
     0
300
1/4" = 1'-0"
140
0.25
141
12.0
290
     0
  0
SCALE
  5
61
102
{ACAD_REACTORS
330
47
102
}
330
47
100
AcDbScale
 70
     0
300
3/8" = 1'-0"
140
0.375
141
12.0
290
     0
  0
SCALE
  5
62
102
{ACAD_REACTORS
330
47
102
}
330
47
100
AcDbScale
 70
     0
300
1/2" = 1'-0"
140
0.5
141
12.0
290
     0
  0
SCALE
  5
63
102
{ACAD_REACTORS
330
47
102
}
330
47
100
AcDbScale
 70
     0
300
3/4" = 1'-0"
140
0.75
141
12.0
290
     0
  0
SCALE
  5
64
102
{ACAD_REACTORS
330
47
102
}
330
47
100
AcDbScale
 70
     0
300
1" = 1'-0"
140
1.0
141
12.0
290
     0
  0
SCALE
  5
65
102
{ACAD_REACTORS
330
47
102
}
330
47
100
AcDbScale
 70
     0
300
1-1/2" = 1'-0"
140
1.5
141
12.0
290
     0
  0
SCALE
  5
66
102
{ACAD_REACTORS
330
47
102
}
330
47
100
AcDbScale
 70
     0
300
3" = 1'-0"
140
3.0
141
12.0
290
     0
  0
SCALE
  5
67
102
{ACAD_REACTORS
330
47
102
}
330
47
100
AcDbScale
 70
     0
300
6" = 1'-0"
140
6.0
141
12.0
290
     0
  0
SCALE
  5
68
102
{ACAD_REACTORS
330
47
102
}
330
47
100
AcDbScale
 70
     0
300
1'-0" = 1'-0"
140
12.0
141
12.0
290
     0
  0
ENDSEC
  0
EOF
